  0
SECTION
  2
HEADER
  9
$ACADVER
  1
AC1014
  9
$ACADMAINTVER
 70
     0
  9
$DWGCODEPAGE
  3
ANSI_932
  9
$INSBASE
 10
0.0
 20
0.0
 30
0.0
  9
$EXTMIN
 10
48.010682
 20
3.990433
 30
-0.001526
  9
$EXTMAX
 10
281.005067
 20
160.350525
 30
0.0
  9
$LIMMIN
 10
-6.0
 20
-6.0
  9
$LIMMAX
 10
292.0
 20
205.0
  9
$ORTHOMODE
 70
     1
  9
$REGENMODE
 70
     1
  9
$FILLMODE
 70
     1
  9
$QTEXTMODE
 70
     0
  9
$MIRRTEXT
 70
     1
  9
$DRAGMODE
 70
     2
  9
$LTSCALE
 40
1.0
  9
$OSMODE
 70
     1
  9
$ATTMODE
 70
     1
  9
$TEXTSIZE
 40
1.411111
  9
$TRACEWID
 40
0.05
  9
$TEXTSTYLE
  7
STANDARD
  9
$CLAYER
  8
1
  9
$CELTYPE
  6
BYLAYER
  9
$CECOLOR
 62
   256
  9
$CELTSCALE
 40
1.0
  9
$DELOBJ
 70
     1
  9
$DISPSILH
 70
     0
  9
$DIMSCALE
 40
0.0
  9
$DIMASZ
 40
1.0
  9
$DIMEXO
 40
0.0
  9
$DIMDLI
 40
0.5
  9
$DIMRND
 40
0.0
  9
$DIMDLE
 40
0.0
  9
$DIMEXE
 40
0.0
  9
$DIMTP
 40
0.0
  9
$DIMTM
 40
0.0
  9
$DIMTXT
 40
2.116667
  9
$DIMCEN
 40
0.0
  9
$DIMTSZ
 40
0.0
  9
$DIMTOL
 70
     0
  9
$DIMLIM
 70
     0
  9
$DIMTIH
 70
     0
  9
$DIMTOH
 70
     1
  9
$DIMSE1
 70
     0
  9
$DIMSE2
 70
     0
  9
$DIMTAD
 70
     1
  9
$DIMZIN
 70
     0
  9
$DIMBLK
  1

  9
$DIMASO
 70
     0
  9
$DIMSHO
 70
     0
  9
$DIMPOST
  1

  9
$DIMAPOST
  1

  9
$DIMALT
 70
     0
  9
$DIMALTD
 70
     0
  9
$DIMALTF
 40
1.0
  9
$DIMLFAC
 40
1.0
  9
$DIMTOFL
 70
     0
  9
$DIMTVP
 40
0.0
  9
$DIMTIX
 70
     0
  9
$DIMSOXD
 70
     0
  9
$DIMSAH
 70
     1
  9
$DIMBLK1
  1
_OPEN30
  9
$DIMBLK2
  1
_OPEN30
  9
$DIMSTYLE
  2
STANDARD
  9
$DIMCLRD
 70
     0
  9
$DIMCLRE
 70
     0
  9
$DIMCLRT
 70
     0
  9
$DIMTFAC
 40
1.0
  9
$DIMGAP
 40
0.09
  9
$DIMJUST
 70
     0
  9
$DIMSD1
 70
     0
  9
$DIMSD2
 70
     0
  9
$DIMTOLJ
 70
     1
  9
$DIMTZIN
 70
     0
  9
$DIMALTZ
 70
     0
  9
$DIMALTTZ
 70
     0
  9
$DIMFIT
 70
     3
  9
$DIMUPT
 70
     0
  9
$DIMUNIT
 70
     2
  9
$DIMDEC
 70
     4
  9
$DIMTDEC
 70
     4
  9
$DIMALTU
 70
     2
  9
$DIMALTTD
 70
     2
  9
$DIMTXSTY
  7
STANDARD
  9
$DIMAUNIT
 70
     0
  9
$LUNITS
 70
     2
  9
$LUPREC
 70
     2
  9
$SKETCHINC
 40
1.0
  9
$FILLETRAD
 40
0.0
  9
$AUNITS
 70
     1
  9
$AUPREC
 70
     2
  9
$MENU
  1
ACAD
  9
$ELEVATION
 40
0.0
  9
$PELEVATION
 40
0.0
  9
$THICKNESS
 40
0.0
  9
$LIMCHECK
 70
     1
  9
$BLIPMODE
 70
     1
  9
$CHAMFERA
 40
0.0
  9
$CHAMFERB
 40
0.0
  9
$CHAMFERC
 40
0.0
  9
$CHAMFERD
 40
0.0
  9
$SKPOLY
 70
     0
  9
$TDCREATE
 40
0.0000000000
  9
$TDUPDATE
 40
0.0000000000
  9
$TDINDWG
 40
0.0000000000
  9
$TDUSRTIMER
 40
0.0000000000
  9
$USRTIMER
 70
     1
  9
$ANGBASE
 50
0.0
  9
$ANGDIR
 70
     0
  9
$PDMODE
 70
     0
  9
$PDSIZE
 40
0.4
  9
$PLINEWID
 40
0.0
  9
$COORDS
 70
     2
  9
$SPLFRAME
 70
     0
  9
$SPLINETYPE
 70
     6
  9
$SPLINESEGS
 70
     8
  9
$ATTDIA
 70
     0
  9
$ATTREQ
 70
     1
  9
$HANDLING
 70
     1
  9
$HANDSEED
  5
268
  9
$SURFTAB1
 70
     6
  9
$SURFTAB2
 70
     6
  9
$SURFTYPE
 70
     6
  9
$SURFU
 70
     6
  9
$SURFV
 70
     6
  9
$UCSNAME
  2

  9
$UCSORG
 10
0.0
 20
0.0
 30
0.0
  9
$UCSXDIR
 10
1.0
 20
0.0
 30
0.0
  9
$UCSYDIR
 10
0.0
 20
1.0
 30
0.0
  9
$PUCSNAME
  2

  9
$PUCSORG
 10
0.0
 20
0.0
 30
0.0
  9
$PUCSXDIR
 10
1.0
 20
0.0
 30
0.0
  9
$PUCSYDIR
 10
0.0
 20
1.0
 30
0.0
  9
$USERI1
 70
     0
  9
$USERI2
 70
     0
  9
$USERI3
 70
     0
  9
$USERI4
 70
     0
  9
$USERI5
 70
     0
  9
$USERR1
 40
0.0
  9
$USERR2
 40
0.0
  9
$USERR3
 40
0.0
  9
$USERR4
 40
0.0
  9
$USERR5
 40
0.0
  9
$WORLDVIEW
 70
     1
  9
$SHADEDGE
 70
     3
  9
$SHADEDIF
 70
    70
  9
$TILEMODE
 70
     1
  9
$MAXACTVP
 70
    48
  9
$PINSBASE
 10
0.0
 20
0.0
 30
0.0
  9
$PLIMCHECK
 70
     0
  9
$PEXTMIN
 10
1.000000E+20
 20
1.000000E+20
 30
1.000000E+20
  9
$PEXTMAX
 10
-1.000000E+20
 20
-1.000000E+20
 30
-1.000000E+20
  9
$PLIMMIN
 10
0.0
 20
0.0
  9
$PLIMMAX
 10
12.0
 20
9.0
  9
$UNITMODE
 70
     0
  9
$VISRETAIN
 70
     1
  9
$PLINEGEN
 70
     0
  9
$PSLTSCALE
 70
     1
  9
$TREEDEPTH
 70
  3020
  9
$PICKSTYLE
 70
     1
  9
$CMLSTYLE
  2
STANDARD
  9
$CMLJUST
 70
     0
  9
$CMLSCALE
 40
1.0
  9
$PROXYGRAPHICS
 70
     1
  9
$MEASUREMENT
 70
     0
  0
ENDSEC
  0
SECTION
  2
CLASSES
  0
ENDSEC
  0
SECTION
  2
TABLES
  0
TABLE
  2
VPORT
  5
8
100
AcDbSymbolTable
 70
     2
  0
VPORT
  5
267
100
AcDbSymbolTableRecord
100
AcDbViewportTableRecord
  2
*ACTIVE
 70
     0
 10
0.0
 20
0.0
 11
1.0
 21
1.0
 12
213.115385
 22
99.5
 13
0.0
 23
0.0
 14
1.0
 24
1.0
 15
0.0
 25
0.0
 16
0.0
 26
0.0
 36
1.0
 17
0.0
 27
0.0
 37
0.0
 40
211.0
 41
2.076923
 42
50.0
 43
0.0
 44
0.0
 50
0.0
 51
0.0
 71
     0
 72
   100
 73
     1
 74
     1
 75
     0
 76
     0
 77
     0
 78
     0
  0
ENDTAB
  0
TABLE
  2
LTYPE
  5
5
100
AcDbSymbolTable
 70
     5
  0
LTYPE
  5
12
100
AcDbSymbolTableRecord
100
AcDbLinetypeTableRecord
  2
BYBLOCK
 70
     0
  3

 72
    65
 73
     0
 40
0.0
  0
LTYPE
  5
13
100
AcDbSymbolTableRecord
100
AcDbLinetypeTableRecord
  2
BYLAYER
 70
     0
  3

 72
    65
 73
     0
 40
0.0
  0
LTYPE
  5
14
100
AcDbSymbolTableRecord
100
AcDbLinetypeTableRecord
  2
CONTINUOUS
 70
     0
  3
SolidLine
 72
    65
 73
     0
 40
0.0
  0
LTYPE
  5
20
100
AcDbSymbolTableRecord
100
AcDbLinetypeTableRecord
  2
HIDDEN
 70
     0
  3
- - - - - - - - - -
 72
    65
 73
     2
 40
3.0
 49
2.0
 74
     0
 49
-1.0
 74
     0
  0
LTYPE
  5
21
100
AcDbSymbolTableRecord
100
AcDbLinetypeTableRecord
  2
DOT
 70
     0
  3
･･･････････････････
 72
    65
 73
     2
 40
2.0
 49
0.5
 74
     0
 49
-1.5
 74
     0
  0
LTYPE
  5
22
100
AcDbSymbolTableRecord
100
AcDbLinetypeTableRecord
  2
DASHDOT
 70
     0
  3
-･-･-･-･-･-･-･-･-･-
 72
    65
 73
     4
 40
20.0
 49
15.0
 74
     0
 49
-2.0
 74
     0
 49
1.0
 74
     0
 49
-2.0
 74
     0
  0
LTYPE
  5
23
100
AcDbSymbolTableRecord
100
AcDbLinetypeTableRecord
  2
DIVIDE
 70
     0
  3
-･･-･･-･･-･･-･･-･･-
 72
    65
 73
     6
 40
20.0
 49
15.0
 74
     0
 49
-1.0
 74
     0
 49
1.0
 74
     0
 49
-1.0
 74
     0
 49
1.0
 74
     0
 49
-1.0
 74
     0
  0
ENDTAB
  0
TABLE
  2
LAYER
  5
2
100
AcDbSymbolTable
 70
    31
  0
LAYER
  5
E
100
AcDbSymbolTableRecord
100
AcDbLayerTableRecord
  2
0
 70
     0
 62
     7
  6
CONTINUOUS
  0
LAYER
  5
1F
100
AcDbSymbolTableRecord
100
AcDbLayerTableRecord
  2
1
 70
     0
 62
     7
  6
CONTINUOUS
  0
LAYER
  5
24
100
AcDbSymbolTableRecord
100
AcDbLayerTableRecord
  2
CONTINUOUS
 70
     0
 62
     7
  6
CONTINUOUS
  0
LAYER
  5
25
100
AcDbSymbolTableRecord
100
AcDbLayerTableRecord
  2
HIDDEN
 70
     0
 62
     2
  6
HIDDEN
  0
LAYER
  5
26
100
AcDbSymbolTableRecord
100
AcDbLayerTableRecord
  2
DOT
 70
     0
 62
     7
  6
DOT
  0
LAYER
  5
27
100
AcDbSymbolTableRecord
100
AcDbLayerTableRecord
  2
DASHDOT
 70
     0
 62
     6
  6
DASHDOT
  0
LAYER
  5
28
100
AcDbSymbolTableRecord
100
AcDbLayerTableRecord
  2
DIVIDE
 70
     0
 62
     5
  6
DIVIDE
  0
LAYER
  5
29
100
AcDbSymbolTableRecord
100
AcDbLayerTableRecord
  2
DIMENSION
 70
     0
 62
     7
  6
CONTINUOUS
  0
LAYER
  5
2A
100
AcDbSymbolTableRecord
100
AcDbLayerTableRecord
  2
2
 70
     0
 62
     7
  6
CONTINUOUS
  0
LAYER
  5
2B
100
AcDbSymbolTableRecord
100
AcDbLayerTableRecord
  2
3
 70
     0
 62
     7
  6
CONTINUOUS
  0
LAYER
  5
2C
100
AcDbSymbolTableRecord
100
AcDbLayerTableRecord
  2
4
 70
     0
 62
     7
  6
CONTINUOUS
  0
LAYER
  5
2D
100
AcDbSymbolTableRecord
100
AcDbLayerTableRecord
  2
5
 70
     0
 62
     7
  6
CONTINUOUS
  0
LAYER
  5
2E
100
AcDbSymbolTableRecord
100
AcDbLayerTableRecord
  2
6
 70
     0
 62
     7
  6
CONTINUOUS
  0
LAYER
  5
2F
100
AcDbSymbolTableRecord
100
AcDbLayerTableRecord
  2
7
 70
     0
 62
     7
  6
CONTINUOUS
  0
LAYER
  5
30
100
AcDbSymbolTableRecord
100
AcDbLayerTableRecord
  2
8
 70
     0
 62
     7
  6
CONTINUOUS
  0
LAYER
  5
31
100
AcDbSymbolTableRecord
100
AcDbLayerTableRecord
  2
9
 70
     0
 62
     7
  6
CONTINUOUS
  0
LAYER
  5
32
100
AcDbSymbolTableRecord
100
AcDbLayerTableRecord
  2
10
 70
     0
 62
     7
  6
CONTINUOUS
  0
LAYER
  5
33
100
AcDbSymbolTableRecord
100
AcDbLayerTableRecord
  2
11
 70
     0
 62
     7
  6
CONTINUOUS
  0
LAYER
  5
34
100
AcDbSymbolTableRecord
100
AcDbLayerTableRecord
  2
12
 70
     0
 62
     7
  6
CONTINUOUS
  0
LAYER
  5
35
100
AcDbSymbolTableRecord
100
AcDbLayerTableRecord
  2
13
 70
     0
 62
     7
  6
CONTINUOUS
  0
LAYER
  5
36
100
AcDbSymbolTableRecord
100
AcDbLayerTableRecord
  2
14
 70
     0
 62
     7
  6
CONTINUOUS
  0
LAYER
  5
37
100
AcDbSymbolTableRecord
100
AcDbLayerTableRecord
  2
15
 70
     0
 62
     7
  6
CONTINUOUS
  0
LAYER
  5
38
100
AcDbSymbolTableRecord
100
AcDbLayerTableRecord
  2
16
 70
     0
 62
     7
  6
CONTINUOUS
  0
LAYER
  5
39
100
AcDbSymbolTableRecord
100
AcDbLayerTableRecord
  2
17
 70
     0
 62
     7
  6
CONTINUOUS
  0
LAYER
  5
3A
100
AcDbSymbolTableRecord
100
AcDbLayerTableRecord
  2
18
 70
     0
 62
     7
  6
CONTINUOUS
  0
LAYER
  5
3B
100
AcDbSymbolTableRecord
100
AcDbLayerTableRecord
  2
19
 70
     0
 62
     7
  6
CONTINUOUS
  0
LAYER
  5
3C
100
AcDbSymbolTableRecord
100
AcDbLayerTableRecord
  2
HATCH
 70
     0
 62
     7
  6
CONTINUOUS
  0
LAYER
  5
3D
100
AcDbSymbolTableRecord
100
AcDbLayerTableRecord
  2
GUIDE1
 70
     0
 62
     4
  6
DASHDOT
  0
LAYER
  5
3E
100
AcDbSymbolTableRecord
100
AcDbLayerTableRecord
  2
GUIDE2
 70
     0
 62
     4
  6
DASHDOT
  0
LAYER
  5
3F
100
AcDbSymbolTableRecord
100
AcDbLayerTableRecord
  2
GUIDE3
 70
     0
 62
     4
  6
DASHDOT
  0
LAYER
  5
40
100
AcDbSymbolTableRecord
100
AcDbLayerTableRecord
  2
GUIDE4
 70
     0
 62
     4
  6
DASHDOT
  0
ENDTAB
  0
TABLE
  2
STYLE
  5
3
100
AcDbSymbolTable
 70
     3
  0
STYLE
  5
F
100
AcDbSymbolTableRecord
100
AcDbTextStyleTableRecord
  2
STANDARD
 70
     0
 40
0.0
 41
1.0
 50
0.0
 71
     0
 42
3.0
  3
TXT
  4

  0
STYLE
  5
41
100
AcDbSymbolTableRecord
100
AcDbTextStyleTableRecord
  2
KANJI
 70
     0
 40
0.0
 41
1.0
 50
0.0
 71
     0
 42
3.0
  3
TXT
  4
BIGFONT
  0
STYLE
  5
216
100
AcDbSymbolTableRecord
100
AcDbTextStyleTableRecord
  2
STANDARD1
 70
     0
 40
0.0
 41
1.0
 50
0.0
 71
     0
 42
4.0
  3
monotxt.shx
  4
bigfont.shx
  0
ENDTAB
  0
TABLE
  2
VIEW
  5
6
100
AcDbSymbolTable
 70
     0
  0
ENDTAB
  0
TABLE
  2
UCS
  5
7
100
AcDbSymbolTable
 70
     0
  0
ENDTAB
  0
TABLE
  2
APPID
  5
9
100
AcDbSymbolTable
 70
     5
  0
APPID
  5
10
100
AcDbSymbolTableRecord
100
AcDbRegAppTableRecord
  2
ACAD
 70
     0
  0
APPID
  5
217
100
AcDbSymbolTableRecord
100
AcDbRegAppTableRecord
  2
CONTENTTABDATA
 70
     0
  0
APPID
  5
218
100
AcDbSymbolTableRecord
100
AcDbRegAppTableRecord
  2
CONTENTCURRENTTAB
 70
     0
  0
APPID
  5
219
100
AcDbSymbolTableRecord
100
AcDbRegAppTableRecord
  2
CONTENTBLOCKDESCRIPTION
 70
     0
  0
APPID
  5
21A
100
AcDbSymbolTableRecord
100
AcDbRegAppTableRecord
  2
CONTENTBLOCKICON
 70
     0
  0
ENDTAB
  0
TABLE
  2
DIMSTYLE
  5
A
100
AcDbSymbolTable
 70
     1
  0
DIMSTYLE
105
1AF
100
AcDbSymbolTableRecord
100
AcDbDimStyleTableRecord
  2
STANDARD
 70
     0
  3

  4

  5

  6

  7

 40
1.0
 41
0.18
 42
0.0625
 43
0.38
 44
0.18
 45
0.0
 46
0.0
 47
0.0
 48
0.0
140
0.18
141
0.09
142
0.0
143
25.4
144
1.0
145
0.0
146
1.0
147
0.09
 71
     0
 72
     0
 73
     1
 74
     1
 75
     0
 76
     0
 77
     0
 78
     0
170
     0
171
     2
172
     0
173
     0
174
     0
175
     0
176
     0
177
     0
178
     0
270
     2
271
     4
272
     4
273
     2
274
     2
340
F
275
     0
280
     0
281
     0
282
     0
283
     1
284
     0
285
     0
286
     0
287
     3
288
     0
  0
ENDTAB
  0
TABLE
  2
BLOCK_RECORD
  5
1
100
AcDbSymbolTable
 70
     3
  0
BLOCK_RECORD
  5
18
100
AcDbSymbolTableRecord
100
AcDbBlockTableRecord
  2
*MODEL_SPACE
  0
BLOCK_RECORD
  5
15
100
AcDbSymbolTableRecord
100
AcDbBlockTableRecord
  2
*PAPER_SPACE
  0
BLOCK_RECORD
  5
1B7
100
AcDbSymbolTableRecord
100
AcDbBlockTableRecord
  2
_OPEN30
  0
BLOCK_RECORD
  5
201
100
AcDbSymbolTableRecord
100
AcDbBlockTableRecord
  2
外形枠
1001
CONTENTBLOCKICON
1071
        0
1004
2800000020000000200000000100040000000000000200000000000000000000000000000000000000000000000080000080000000808000800000008000800080800000C0C0C000808080000000FF0000FF000000FFFF00FF000000FF00FF00FFFF0000FFFFFF00FFFFFFFFFFFFFFFFFFFFFFFFFFFFFFFF
1004
FFFFFFFFFFFFFFFFFFFFFFFFFFFFFFFFFFFFFFFFFFFFFFFFFFFFFFFFFFFFFFFFFFFFFFFFFFFFFFFFFFFFFFFFFFFFFFFFFFFFFFFFFFFFFFFFFFFFFFFFFFFFFFFFFFFFFFFFFFFFFFFFFFFFFFFFFFFFFFFFFFFFFFFFFFFFFFFFFFFFFFFFFFFFFFFFFFFFFFFFFFFFFFFFFFFFFFFFFFFFFFFFFFFFFFFFFFFFFFFF
1004
FFFFFFFFFFFFFFFFFFFFFFFFFFFFFFFFFFFFFFFFFFFFFFFFFFFFFFFFFFFFFFFFFFFFFFFFFFFFFFFFFFFFFFFFFFFFFFFFFFFFFFFFFFFFFFFFFFFFFFFFFFFFFFFFFFFFFFFFFFFFFFFFFFFFFFFFFFFFFFFFFFFFFFFFFFFFFFFFFFFFFFFFFFFFFFFFFFFFFFFFFFFFFFFFFFFFFFFFFFFFFFFFFFFFFFFFFFFFFFFF
1004
FFFFFFFFFFFFFFFFFFFFFFFFFFFFFFFFFFFFFFFFFFFFFFFFFFFFFFFFFFFFFFFFFFFFFFFFFFFFFFFFFFFFFFFFFFFFFFFFFFFFFFFFFFFFFFFFFFFFFFFFFFFFFFFFFFFFFFFFFFFFFFFFFFFFFFFFFFFFFFFFFFFFFFFFFFFFFFFFFFFFFFFFFFFFFFFFFFFFFFFFFFFFFFFFFFFFFFFFFFFFFFFFFFFFFFFFFFFFFFFF
1004
FFFFFFFFFFFFFFFFFFFFFFFFFFFFFFFFFFFFFFFFFFFFFFFFFFFFFFFFFFFFFFFFFFFFFFFFFFFFFFFFFFFFFFFFFFFFFFFFFFFFFFFFFFFFFFFFFFFFFFFFFFFFFFFFFFFFFFFFFFFFFFFFFFFFFFFFFFFFFFFFFFFFFFFFFFFFFFFFFFFFFFFFFFFFFFFFFFFFFFFFFFFFFFFFFFFFFFFFFFFFFFFFFFFFFFFFFFFFFFFF
1004
FFFFFFFFFFFFFFFFFFFFFFFFFFFFFFFF
  0
BLOCK_RECORD
  5
220
100
AcDbSymbolTableRecord
100
AcDbBlockTableRecord
  2
外形枠２
1001
CONTENTBLOCKICON
1071
        0
1004
2800000020000000200000000100040000000000000200000000000000000000000000000000000000000000000080000080000000808000800000008000800080800000C0C0C000808080000000FF0000FF000000FFFF00FF000000FF00FF00FFFF0000FFFFFF00FFFFFFFFFFFFFFFFFFFFFFFFFFFFFFFF
1004
FFFFFFFFFFFFFFFFFFFFFFFFFFFFFFFFFFFFFFFFFFFFFFFFFFFFFFFFFFFFFFFFFFFFFFFFFFFFFFFFFFFFFFFFFFFFFFFFFFFFFFFFFFFFFFFFFFFFFFFFFFFFFFFFFFFFFFFFFFFFFFFFFFFFFFFFFFFFFFFFFFFFFFFFFFFFFFFFFFFFFFFFFFFFFFFFFFFFFFFFFFFFFFFFFFFFFFFFFFFFFFFFFFFFFFFFFFFFFFFF
1004
FFFFFFFFFFFFFFFFFFFFFFFFFFFFFFFFFFFFFFFFFFFFFFFFFFFFFFFFFFFFFFFFFFFFFFFFFFFFFFFFFFFFFFFFFFFFFFFFFFFFFFFFFFFFFFFFFFFFFFFFFFFFFFFFFFFFFFFFFFFFFFFFFFFFFFFFFFFFFFFFFFFFFFFFFFFFFFFFFFFFFFFFFFFFFFFFFFFFFFFFFFFFFFFFFFFFFFFFFFFFFFFFFFFFFFFFFFFFFFFF
1004
FFFFFFFFFFFFFFFFFFFFFFFFFFFFFFFFFFFFFFFFFFFFFFFFFFFFFFFFFFFFFFFFFFFFFFFFFFFFFFFFFFFFFFFFFFFFFFFFFFFFFFFFFFFFFFFFFFFFFFFFFFFFFFFFFFFFFFFFFFFFFFFFFFFFFFFFFFFFFFFFFFFFFFFFFFFFFFFFFFFFFFFFFFFFFFFFFFFFFFFFFFFFFFFFFFFFFFFFFFFFFFFFFFFFFFFFFFFFFFFF
1004
FFFFFFFFFFFFFFFFFFFFFFFFFFFFFFFFFFFFFFFFFFFFFFFFFFFFFFFFFFFFFFFFFFFFFFFFFFFFFFFFFFFFFFFFFFFFFFFFFFFFFFFFFFFFFFFFFFFFFFFFFFFFFFFFFFFFFFFFFFFFFFFFFFFFFFFFFFFFFFFFFFFFFFFFFFFFFFFFFFFFFFFFFFFFFFFFFFFFFFFFFFFFFFFFFFFFFFFFFFFFFFFFFFFFFFFFFFFFFFFF
1004
FFFFFFFFFFFFFFFFFFFFFFFFFFFFFFFF
  0
ENDTAB
  0
ENDSEC
  0
SECTION
  2
BLOCKS
  0
BLOCK
  5
19
100
AcDbEntity
  8
0
100
AcDbBlockBegin
  2
*MODEL_SPACE
 70
     0
 10
0.0
 20
0.0
 30
0.0
  3
*MODEL_SPACE
  1

  0
ENDBLK
  5
1A
100
AcDbEntity
  8
0
100
AcDbBlockEnd
  0
BLOCK
  5
16
100
AcDbEntity
 67
     1
  8
0
100
AcDbBlockBegin
  2
*PAPER_SPACE
 70
     0
 10
0.0
 20
0.0
 30
0.0
  3
*PAPER_SPACE
  1

  0
ENDBLK
  5
17
100
AcDbEntity
 67
     1
  8
0
100
AcDbBlockEnd
  0
BLOCK
  5
1B8
100
AcDbEntity
  8
0
100
AcDbBlockBegin
  2
_OPEN30
 70
     0
 10
0.0
 20
0.0
 30
0.0
  3
_OPEN30
  1

  0
LINE
  5
1B9
100
AcDbEntity
  8
0
  6
BYBLOCK
 62
     0
100
AcDbLine
 10
-1.0
 20
0.267949
 30
0.0
 11
0.0
 21
0.0
 31
0.0
  0
LINE
  5
1BA
100
AcDbEntity
  8
0
  6
BYBLOCK
 62
     0
100
AcDbLine
 10
0.0
 20
0.0
 30
0.0
 11
-1.0
 21
-0.267949
 31
0.0
  0
LINE
  5
1BB
100
AcDbEntity
  8
0
  6
BYBLOCK
 62
     0
100
AcDbLine
 10
0.0
 20
0.0
 30
0.0
 11
-1.0
 21
0.0
 31
0.0
  0
ENDBLK
  5
1BC
100
AcDbEntity
  8
0
100
AcDbBlockEnd
  0
BLOCK
  5
214
100
AcDbEntity
  8
0
100
AcDbBlockBegin
  2
外形枠
 70
     0
 10
0.0
 20
0.0
 30
0.0
  3
外形枠
  1

  0
LINE
  5
202
102
{ACAD_REACTORS
330
21C
102
}
100
AcDbEntity
  8
0
100
AcDbLine
 10
0.0
 20
0.0
 30
0.0
 11
0.0
 21
210.0
 31
0.0
  0
LINE
  5
203
102
{ACAD_REACTORS
330
21C
102
}
100
AcDbEntity
  8
0
100
AcDbLine
 10
0.0
 20
210.0
 30
0.0
 11
297.0
 21
210.0
 31
0.0
  0
LINE
  5
204
102
{ACAD_REACTORS
330
21C
102
}
100
AcDbEntity
  8
0
100
AcDbLine
 10
297.0
 20
210.0
 30
0.0
 11
297.0
 21
0.0
 31
0.0
  0
LINE
  5
205
102
{ACAD_REACTORS
330
21C
102
}
100
AcDbEntity
  8
0
100
AcDbLine
 10
297.0
 20
0.0
 30
0.0
 11
0.0
 21
0.0
 31
0.0
  0
LINE
  5
206
102
{ACAD_REACTORS
330
21B
102
}
100
AcDbEntity
  8
0
100
AcDbLine
 10
6.0
 20
6.0
 30
0.0
 11
6.0
 21
204.0
 31
0.0
  0
LINE
  5
207
102
{ACAD_REACTORS
330
21B
102
}
100
AcDbEntity
  8
0
100
AcDbLine
 10
6.0
 20
204.0
 30
0.0
 11
292.0
 21
204.0
 31
0.0
  0
LINE
  5
208
102
{ACAD_REACTORS
330
21B
102
}
100
AcDbEntity
  8
0
100
AcDbLine
 10
292.0
 20
204.0
 30
0.0
 11
292.0
 21
6.0
 31
0.0
  0
LINE
  5
209
102
{ACAD_REACTORS
330
21B
102
}
100
AcDbEntity
  8
0
100
AcDbLine
 10
292.0
 20
6.0
 30
0.0
 11
6.0
 21
6.0
 31
0.0
  0
LINE
  5
20A
100
AcDbEntity
  8
0
100
AcDbLine
 10
287.0
 20
10.0
 30
0.0
 11
207.0
 21
10.0
 31
0.0
  0
LINE
  5
20B
100
AcDbEntity
  8
0
100
AcDbLine
 10
287.0
 20
26.0
 30
0.0
 11
287.0
 21
10.0
 31
0.0
  0
LINE
  5
20C
100
AcDbEntity
  8
0
100
AcDbLine
 10
287.0
 20
18.0
 30
0.0
 11
207.0
 21
18.0
 31
0.0
  0
LINE
  5
20D
100
AcDbEntity
  8
0
100
AcDbLine
 10
287.0
 20
26.0
 30
0.0
 11
207.0
 21
26.0
 31
0.0
  0
LINE
  5
20E
100
AcDbEntity
  8
0
100
AcDbLine
 10
227.0
 20
26.0
 30
0.0
 11
227.0
 21
10.0
 31
0.0
  0
LINE
  5
20F
100
AcDbEntity
  8
0
100
AcDbLine
 10
207.0
 20
26.0
 30
0.0
 11
207.0
 21
10.0
 31
0.0
  0
TEXT
  5
210
100
AcDbEntity
  8
0
100
AcDbText
 10
212.93529
 20
19.671686
 30
0.0
 40
4.0
  1
品名
  7
STANDARD1
100
AcDbText
  0
TEXT
  5
211
100
AcDbEntity
  8
0
100
AcDbText
 10
212.93529
 20
11.671686
 30
0.0
 40
4.0
  1
型名
  7
STANDARD1
100
AcDbText
  0
TEXT
  5
212
100
AcDbEntity
  8
0
100
AcDbText
 10
228.93529
 20
19.671686
 30
0.0
 40
4.0
  1
カラーカメラ
  7
STANDARD1
100
AcDbText
  0
TEXT
  5
213
100
AcDbEntity
  8
0
100
AcDbText
 10
228.93529
 20
11.671686
 30
0.0
 40
4.0
  1
CIT-771
  7
STANDARD1
100
AcDbText
  0
ENDBLK
  5
215
100
AcDbEntity
  8
0
100
AcDbBlockEnd
  0
BLOCK
  5
235
100
AcDbEntity
  8
0
100
AcDbBlockBegin
  2
外形枠２
 70
     0
 10
0.0
 20
0.0
 30
0.0
  3
外形枠２
  1

  0
TEXT
  5
221
100
AcDbEntity
  8
1
  6
CONTINUOUS
 62
     7
100
AcDbText
 10
6.531
 20
42.913
 30
0.0
 40
2.304
  1
　
 41
0.573
  7
KANJI
100
AcDbText
  0
LINE
  5
222
102
{ACAD_REACTORS
330
21E
102
}
100
AcDbEntity
  8
0
100
AcDbLine
 10
-6.0
 20
-6.0
 30
0.0
 11
-6.0
 21
204.0
 31
0.0
  0
LINE
  5
223
102
{ACAD_REACTORS
330
21E
102
}
100
AcDbEntity
  8
0
100
AcDbLine
 10
-6.0
 20
204.0
 30
0.0
 11
291.0
 21
204.0
 31
0.0
  0
LINE
  5
224
102
{ACAD_REACTORS
330
21E
102
}
100
AcDbEntity
  8
0
100
AcDbLine
 10
291.0
 20
204.0
 30
0.0
 11
291.0
 21
-6.0
 31
0.0
  0
LINE
  5
225
102
{ACAD_REACTORS
330
21E
102
}
100
AcDbEntity
  8
0
100
AcDbLine
 10
291.0
 20
-6.0
 30
0.0
 11
-6.0
 21
-6.0
 31
0.0
  0
LINE
  5
226
102
{ACAD_REACTORS
330
21D
330
21F
102
}
100
AcDbEntity
  8
0
100
AcDbLine
 10
0.0
 20
0.0
 30
0.0
 11
0.0
 21
198.0
 31
0.0
  0
LINE
  5
227
102
{ACAD_REACTORS
330
21D
330
21F
102
}
100
AcDbEntity
  8
0
100
AcDbLine
 10
0.0
 20
198.0
 30
0.0
 11
286.0
 21
198.0
 31
0.0
  0
LINE
  5
228
102
{ACAD_REACTORS
330
21D
330
21F
102
}
100
AcDbEntity
  8
0
100
AcDbLine
 10
286.0
 20
198.0
 30
0.0
 11
286.0
 21
0.0
 31
0.0
  0
LINE
  5
229
102
{ACAD_REACTORS
330
21D
330
21F
102
}
100
AcDbEntity
  8
0
100
AcDbLine
 10
286.0
 20
0.0
 30
0.0
 11
0.0
 21
0.0
 31
0.0
  0
LINE
  5
22A
100
AcDbEntity
  8
0
100
AcDbLine
 10
281.0
 20
4.0
 30
0.0
 11
201.0
 21
4.0
 31
0.0
  0
LINE
  5
22B
100
AcDbEntity
  8
0
100
AcDbLine
 10
281.0
 20
20.0
 30
0.0
 11
281.0
 21
4.0
 31
0.0
  0
LINE
  5
22C
100
AcDbEntity
  8
0
100
AcDbLine
 10
281.0
 20
12.0
 30
0.0
 11
201.0
 21
12.0
 31
0.0
  0
LINE
  5
22D
100
AcDbEntity
  8
0
100
AcDbLine
 10
281.0
 20
20.0
 30
0.0
 11
201.0
 21
20.0
 31
0.0
  0
LINE
  5
22E
100
AcDbEntity
  8
0
100
AcDbLine
 10
221.0
 20
20.0
 30
0.0
 11
221.0
 21
4.0
 31
0.0
  0
LINE
  5
22F
100
AcDbEntity
  8
0
100
AcDbLine
 10
201.0
 20
20.0
 30
0.0
 11
201.0
 21
4.0
 31
0.0
  0
TEXT
  5
230
100
AcDbEntity
  8
0
100
AcDbText
 10
206.93529
 20
13.671686
 30
0.0
 40
4.0
  1
品名
  7
STANDARD1
100
AcDbText
  0
TEXT
  5
231
100
AcDbEntity
  8
0
100
AcDbText
 10
206.93529
 20
5.671686
 30
0.0
 40
4.0
  1
型名
  7
STANDARD1
100
AcDbText
  0
TEXT
  5
232
100
AcDbEntity
  8
0
100
AcDbText
 10
222.93529
 20
13.671686
 30
0.0
 40
4.0
  1
カラーカメラ
  7
STANDARD1
100
AcDbText
  0
TEXT
  5
233
100
AcDbEntity
  8
0
100
AcDbText
 10
222.93529
 20
5.671686
 30
0.0
 40
4.0
  1
CIT-7110
  7
STANDARD1
100
AcDbText
  0
LINE
  5
234
102
{ACAD_REACTORS
330
21F
102
}
100
AcDbEntity
  8
0
100
AcDbLine
 10
0.0
 20
190.0
 30
0.0
 11
286.0
 21
190.0
 31
0.0
  0
ENDBLK
  5
236
100
AcDbEntity
  8
0
100
AcDbBlockEnd
  0
ENDSEC
  0
SECTION
  2
ENTITIES
  0
LINE
  5
43
100
AcDbEntity
  8
1
  6
CONTINUOUS
100
AcDbLine
 10
58.64
 20
108.02
 30
0.0
 11
88.64
 21
108.02
 31
0.0
  0
LINE
  5
44
100
AcDbEntity
  8
1
  6
CONTINUOUS
100
AcDbLine
 10
58.64
 20
58.02
 30
0.0
 11
88.64
 21
58.02
 31
0.0
  0
LINE
  5
45
100
AcDbEntity
  8
1
  6
CONTINUOUS
100
AcDbLine
 10
56.14
 20
105.52
 30
0.0
 11
56.14
 21
60.52
 31
0.0
  0
LINE
  5
46
100
AcDbEntity
  8
1
  6
CONTINUOUS
100
AcDbLine
 10
91.14
 20
105.52
 30
0.0
 11
91.14
 21
60.52
 31
0.0
  0
LINE
  5
47
100
AcDbEntity
  8
1
  6
HIDDEN
100
AcDbLine
 10
68.89
 20
74.27
 30
0.0
 11
78.39
 21
74.27
 31
0.0
  0
LINE
  5
48
100
AcDbEntity
  8
1
  6
HIDDEN
100
AcDbLine
 10
68.89
 20
61.736
 30
0.0
 11
78.39
 21
61.736
 31
0.0
  0
LINE
  5
49
100
AcDbEntity
  8
1
  6
HIDDEN
100
AcDbLine
 10
67.39
 20
72.77
 30
0.0
 11
67.39
 21
63.236
 31
0.0
  0
LINE
  5
4A
100
AcDbEntity
  8
1
  6
HIDDEN
100
AcDbLine
 10
79.89
 20
72.77
 30
0.0
 11
79.89
 21
63.236
 31
0.0
  0
LINE
  5
4B
100
AcDbEntity
  8
1
  6
CONTINUOUS
100
AcDbLine
 10
206.407
 20
58.02
 30
0.0
 11
206.407
 21
108.02
 31
0.0
  0
LINE
  5
4C
100
AcDbEntity
  8
1
  6
CONTINUOUS
100
AcDbLine
 10
201.407
 20
58.02
 30
0.0
 11
206.407
 21
58.02
 31
0.0
  0
LINE
  5
4D
100
AcDbEntity
  8
1
  6
CONTINUOUS
100
AcDbLine
 10
201.407
 20
108.02
 30
0.0
 11
206.407
 21
108.02
 31
0.0
  0
LINE
  5
4E
100
AcDbEntity
  8
1
  6
CONTINUOUS
100
AcDbLine
 10
199.907
 20
59.52
 30
0.0
 11
199.907
 21
106.52
 31
0.0
  0
LINE
  5
4F
100
AcDbEntity
  8
1
  6
CONTINUOUS
100
AcDbLine
 10
194.764
 20
77.486
 30
0.0
 11
199.929
 21
106.78
 31
0.0
  0
LINE
  5
50
100
AcDbEntity
  8
1
  6
CONTINUOUS
100
AcDbLine
 10
200.91
 20
58.104
 30
0.0
 11
194.25
 21
60.44
 31
0.0
  0
LINE
  5
51
100
AcDbEntity
  8
1
  6
HIDDEN
100
AcDbLine
 10
196.487
 20
77.182
 30
0.0
 11
201.616
 21
106.27
 31
0.0
  0
LINE
  5
52
100
AcDbEntity
  8
1
  6
HIDDEN
100
AcDbLine
 10
201.616
 20
106.27
 30
0.0
 11
206.407
 21
106.27
 31
0.0
  0
LINE
  5
53
100
AcDbEntity
  8
1
  6
HIDDEN
100
AcDbLine
 10
201.449
 20
59.77
 30
0.0
 11
206.407
 21
59.77
 31
0.0
  0
LINE
  5
54
100
AcDbEntity
  8
1
  6
HIDDEN
100
AcDbLine
 10
201.449
 20
59.77
 30
0.0
 11
195.382
 21
61.897
 31
0.0
  0
LINE
  5
55
100
AcDbEntity
  8
1
  6
HIDDEN
100
AcDbLine
 10
201.657
 20
59.77
 30
0.0
 11
201.657
 21
106.27
 31
0.0
  0
LINE
  5
56
100
AcDbEntity
  8
1
  6
HIDDEN
100
AcDbLine
 10
185.767
 20
80.668
 30
0.0
 11
197.102
 21
80.668
 31
0.0
  0
LINE
  5
57
100
AcDbEntity
  8
1
  6
CONTINUOUS
100
AcDbLine
 10
185.767
 20
81.668
 30
0.0
 11
194.243
 21
81.668
 31
0.0
  0
LINE
  5
58
100
AcDbEntity
  8
1
  6
CONTINUOUS
100
AcDbLine
 10
184.547
 20
77.129
 30
0.0
 11
185.274
 21
81.255
 31
0.0
  0
LINE
  5
59
100
AcDbEntity
  8
1
  6
CONTINUOUS
100
AcDbLine
 10
154.407
 20
63.27
 30
0.0
 11
161.407
 21
63.27
 31
0.0
  0
LINE
  5
5A
100
AcDbEntity
  8
1
  6
CONTINUOUS
100
AcDbLine
 10
154.407
 20
72.77
 30
0.0
 11
161.407
 21
72.77
 31
0.0
  0
LINE
  5
5B
100
AcDbEntity
  8
1
  6
CONTINUOUS
100
AcDbLine
 10
135.907
 20
64.22
 30
0.0
 11
135.907
 21
71.82
 31
0.0
  0
LINE
  5
5C
100
AcDbEntity
  8
1
  6
CONTINUOUS
100
AcDbLine
 10
136.157
 20
63.97
 30
0.0
 11
141.407
 21
63.97
 31
0.0
  0
LINE
  5
5D
100
AcDbEntity
  8
1
  6
CONTINUOUS
100
AcDbLine
 10
135.907
 20
64.22
 30
0.0
 11
136.157
 21
63.97
 31
0.0
  0
LINE
  5
5E
100
AcDbEntity
  8
1
  6
CONTINUOUS
100
AcDbLine
 10
141.407
 20
62.77
 30
0.0
 11
141.407
 21
73.289
 31
0.0
  0
LINE
  5
5F
100
AcDbEntity
  8
1
  6
CONTINUOUS
100
AcDbLine
 10
154.407
 20
62.77
 30
0.0
 11
154.407
 21
73.27
 31
0.0
  0
LINE
  5
60
100
AcDbEntity
  8
1
  6
CONTINUOUS
100
AcDbLine
 10
142.157
 20
62.52
 30
0.0
 11
153.407
 21
62.52
 31
0.0
  0
LINE
  5
61
100
AcDbEntity
  8
1
  6
CONTINUOUS
100
AcDbLine
 10
142.157
 20
62.52
 30
0.0
 11
142.157
 21
73.52
 31
0.0
  0
LINE
  5
62
100
AcDbEntity
  8
1
  6
CONTINUOUS
100
AcDbLine
 10
153.407
 20
62.52
 30
0.0
 11
153.407
 21
73.52
 31
0.0
  0
LINE
  5
63
100
AcDbEntity
  8
1
  6
CONTINUOUS
100
AcDbLine
 10
141.407
 20
62.77
 30
0.0
 11
142.157
 21
62.77
 31
0.0
  0
LINE
  5
64
100
AcDbEntity
  8
1
  6
CONTINUOUS
100
AcDbLine
 10
153.407
 20
62.77
 30
0.0
 11
154.407
 21
62.77
 31
0.0
  0
LINE
  5
65
100
AcDbEntity
  8
1
  6
CONTINUOUS
100
AcDbLine
 10
141.407
 20
72.07
 30
0.0
 11
136.157
 21
72.07
 31
0.0
  0
LINE
  5
66
100
AcDbEntity
  8
1
  6
CONTINUOUS
100
AcDbLine
 10
136.157
 20
72.07
 30
0.0
 11
135.907
 21
71.82
 31
0.0
  0
LINE
  5
67
100
AcDbEntity
  8
1
  6
CONTINUOUS
100
AcDbLine
 10
153.407
 20
73.52
 30
0.0
 11
142.157
 21
73.52
 31
0.0
  0
LINE
  5
68
100
AcDbEntity
  8
1
  6
CONTINUOUS
100
AcDbLine
 10
142.157
 20
73.27
 30
0.0
 11
141.407
 21
73.27
 31
0.0
  0
LINE
  5
69
100
AcDbEntity
  8
1
  6
CONTINUOUS
100
AcDbLine
 10
154.407
 20
73.27
 30
0.0
 11
153.407
 21
73.27
 31
0.0
  0
LINE
  5
6A
100
AcDbEntity
  8
1
  6
CONTINUOUS
100
AcDbLine
 10
162.372
 20
74.373
 30
0.0
 11
192.389
 21
75.422
 31
0.0
  0
LINE
  5
6B
100
AcDbEntity
  8
1
  6
CONTINUOUS
100
AcDbLine
 10
193.51
 20
60.579
 30
0.0
 11
162.372
 21
61.666
 31
0.0
  0
LINE
  5
6C
100
AcDbEntity
  8
1
  6
HIDDEN
100
AcDbLine
 10
163.157
 20
72.65
 30
0.0
 11
192.45
 21
73.673
 31
0.0
  0
LINE
  5
6D
100
AcDbEntity
  8
1
  6
HIDDEN
100
AcDbLine
 10
193.571
 20
62.328
 30
0.0
 11
163.157
 21
63.39
 31
0.0
  0
LINE
  5
6E
100
AcDbEntity
  8
1
  6
CONTINUOUS
100
AcDbLine
 10
126.407
 20
60.52
 30
0.0
 11
126.407
 21
75.52
 31
0.0
  0
LINE
  5
6F
100
AcDbEntity
  8
1
  6
CONTINUOUS
100
AcDbLine
 10
126.657
 20
59.02
 30
0.0
 11
126.657
 21
77.02
 31
0.0
  0
LINE
  5
70
100
AcDbEntity
  8
1
  6
CONTINUOUS
100
AcDbLine
 10
129.407
 20
59.02
 30
0.0
 11
129.407
 21
77.02
 31
0.0
  0
LINE
  5
71
100
AcDbEntity
  8
1
  6
CONTINUOUS
100
AcDbLine
 10
126.657
 20
59.02
 30
0.0
 11
129.407
 21
59.02
 31
0.0
  0
LINE
  5
72
100
AcDbEntity
  8
1
  6
CONTINUOUS
100
AcDbLine
 10
126.657
 20
77.02
 30
0.0
 11
129.407
 21
77.02
 31
0.0
  0
LINE
  5
73
100
AcDbEntity
  8
1
  6
CONTINUOUS
100
AcDbLine
 10
126.407
 20
60.52
 30
0.0
 11
126.657
 21
60.52
 31
0.0
  0
LINE
  5
74
100
AcDbEntity
  8
1
  6
CONTINUOUS
100
AcDbLine
 10
126.407
 20
75.52
 30
0.0
 11
126.657
 21
75.52
 31
0.0
  0
LINE
  5
75
100
AcDbEntity
  8
1
  6
CONTINUOUS
100
AcDbLine
 10
123.657
 20
66.82
 30
0.0
 11
123.657
 21
69.22
 31
0.0
  0
LINE
  5
76
100
AcDbEntity
  8
1
  6
CONTINUOUS
100
AcDbLine
 10
123.888
 20
66.42
 30
0.0
 11
126.407
 21
66.42
 31
0.0
  0
LINE
  5
77
100
AcDbEntity
  8
1
  6
CONTINUOUS
100
AcDbLine
 10
123.888
 20
69.62
 30
0.0
 11
126.407
 21
69.62
 31
0.0
  0
LINE
  5
78
100
AcDbEntity
  8
1
  6
CONTINUOUS
100
AcDbLine
 10
123.657
 20
66.82
 30
0.0
 11
123.888
 21
66.42
 31
0.0
  0
LINE
  5
79
100
AcDbEntity
  8
1
  6
CONTINUOUS
100
AcDbLine
 10
123.657
 20
69.22
 30
0.0
 11
123.888
 21
69.62
 31
0.0
  0
LINE
  5
7A
100
AcDbEntity
  8
1
  6
CONTINUOUS
100
AcDbLine
 10
123.657
 20
66.82
 30
0.0
 11
126.407
 21
66.82
 31
0.0
  0
LINE
  5
7B
100
AcDbEntity
  8
1
  6
CONTINUOUS
100
AcDbLine
 10
123.657
 20
69.22
 30
0.0
 11
126.407
 21
69.22
 31
0.0
  0
LINE
  5
7C
100
AcDbEntity
  8
1
  6
CONTINUOUS
100
AcDbLine
 10
123.888
 20
69.62
 30
0.0
 11
123.888
 21
66.42
 31
0.0
  0
LINE
  5
7D
100
AcDbEntity
  8
1
  6
CONTINUOUS
100
AcDbLine
 10
130.907
 20
65.02
 30
0.0
 11
130.907
 21
71.02
 31
0.0
  0
LINE
  5
7E
100
AcDbEntity
  8
1
  6
CONTINUOUS
100
AcDbLine
 10
135.657
 20
66.77
 30
0.0
 11
135.657
 21
69.27
 31
0.0
  0
LINE
  5
7F
100
AcDbEntity
  8
1
  6
CONTINUOUS
100
AcDbLine
 10
135.657
 20
66.77
 30
0.0
 11
130.907
 21
66.27
 31
0.0
  0
LINE
  5
80
100
AcDbEntity
  8
1
  6
CONTINUOUS
100
AcDbLine
 10
130.907
 20
69.77
 30
0.0
 11
135.657
 21
69.27
 31
0.0
  0
LINE
  5
81
100
AcDbEntity
  8
1
  6
HIDDEN
100
AcDbLine
 10
58.64
 20
59.77
 30
0.0
 11
88.64
 21
59.77
 31
0.0
  0
LINE
  5
82
100
AcDbEntity
  8
1
  6
HIDDEN
100
AcDbLine
 10
89.39
 20
105.52
 30
0.0
 11
89.39
 21
60.52
 31
0.0
  0
LINE
  5
83
100
AcDbEntity
  8
1
  6
HIDDEN
100
AcDbLine
 10
58.64
 20
106.27
 30
0.0
 11
88.64
 21
106.27
 31
0.0
  0
LINE
  5
84
100
AcDbEntity
  8
1
  6
HIDDEN
100
AcDbLine
 10
57.89
 20
105.52
 30
0.0
 11
57.89
 21
60.52
 31
0.0
  0
LINE
  5
85
100
AcDbEntity
  8
1
  6
HIDDEN
100
AcDbLine
 10
201.907
 20
61.77
 30
0.0
 11
201.907
 21
66.77
 31
0.0
  0
LINE
  5
86
100
AcDbEntity
  8
1
  6
HIDDEN
100
AcDbLine
 10
201.907
 20
65.52
 30
0.0
 11
206.407
 21
65.52
 31
0.0
  0
LINE
  5
87
100
AcDbEntity
  8
1
  6
HIDDEN
100
AcDbLine
 10
203.407
 20
67.02
 30
0.0
 11
206.407
 21
67.02
 31
0.0
  0
LINE
  5
88
100
AcDbEntity
  8
1
  6
HIDDEN
100
AcDbLine
 10
203.407
 20
67.02
 30
0.0
 11
203.407
 21
68.27
 31
0.0
  0
LINE
  5
89
100
AcDbEntity
  8
1
  6
HIDDEN
100
AcDbLine
 10
199.907
 20
66.77
 30
0.0
 11
201.907
 21
66.77
 31
0.0
  0
LINE
  5
8A
100
AcDbEntity
  8
1
  6
HIDDEN
100
AcDbLine
 10
201.657
 20
68.27
 30
0.0
 11
203.407
 21
68.27
 31
0.0
  0
LINE
  5
8B
100
AcDbEntity
  8
1
  6
HIDDEN
100
AcDbLine
 10
206.407
 20
63.02
 30
0.0
 11
201.907
 21
63.02
 31
0.0
  0
LINE
  5
8C
100
AcDbEntity
  8
1
  6
HIDDEN
100
AcDbLine
 10
206.407
 20
61.52
 30
0.0
 11
203.407
 21
61.52
 31
0.0
  0
LINE
  5
8D
100
AcDbEntity
  8
1
  6
HIDDEN
100
AcDbLine
 10
203.407
 20
60.27
 30
0.0
 11
203.407
 21
61.52
 31
0.0
  0
LINE
  5
8E
100
AcDbEntity
  8
1
  6
HIDDEN
100
AcDbLine
 10
201.907
 20
61.77
 30
0.0
 11
199.907
 21
61.77
 31
0.0
  0
LINE
  5
8F
100
AcDbEntity
  8
1
  6
HIDDEN
100
AcDbLine
 10
203.407
 20
60.27
 30
0.0
 11
201.657
 21
60.27
 31
0.0
  0
LINE
  5
90
100
AcDbEntity
  8
1
  6
HIDDEN
100
AcDbLine
 10
201.907
 20
99.27
 30
0.0
 11
201.907
 21
104.27
 31
0.0
  0
LINE
  5
91
100
AcDbEntity
  8
1
  6
HIDDEN
100
AcDbLine
 10
201.907
 20
103.02
 30
0.0
 11
206.407
 21
103.02
 31
0.0
  0
LINE
  5
92
100
AcDbEntity
  8
1
  6
HIDDEN
100
AcDbLine
 10
203.407
 20
104.52
 30
0.0
 11
206.407
 21
104.52
 31
0.0
  0
LINE
  5
93
100
AcDbEntity
  8
1
  6
HIDDEN
100
AcDbLine
 10
203.407
 20
104.52
 30
0.0
 11
203.407
 21
105.77
 31
0.0
  0
LINE
  5
94
100
AcDbEntity
  8
1
  6
HIDDEN
100
AcDbLine
 10
199.487
 20
104.27
 30
0.0
 11
201.907
 21
104.27
 31
0.0
  0
LINE
  5
95
100
AcDbEntity
  8
1
  6
HIDDEN
100
AcDbLine
 10
201.528
 20
105.77
 30
0.0
 11
203.407
 21
105.77
 31
0.0
  0
LINE
  5
96
100
AcDbEntity
  8
1
  6
HIDDEN
100
AcDbLine
 10
206.407
 20
100.52
 30
0.0
 11
201.907
 21
100.52
 31
0.0
  0
LINE
  5
97
100
AcDbEntity
  8
1
  6
HIDDEN
100
AcDbLine
 10
206.407
 20
99.02
 30
0.0
 11
203.407
 21
99.02
 31
0.0
  0
LINE
  5
98
100
AcDbEntity
  8
1
  6
HIDDEN
100
AcDbLine
 10
203.407
 20
97.77
 30
0.0
 11
203.407
 21
99.02
 31
0.0
  0
LINE
  5
99
100
AcDbEntity
  8
1
  6
HIDDEN
100
AcDbLine
 10
201.907
 20
99.27
 30
0.0
 11
198.605
 21
99.27
 31
0.0
  0
LINE
  5
9A
100
AcDbEntity
  8
1
  6
HIDDEN
100
AcDbLine
 10
203.407
 20
97.77
 30
0.0
 11
200.118
 21
97.77
 31
0.0
  0
LINE
  5
9B
100
AcDbEntity
  8
1
  6
CONTINUOUS
100
AcDbLine
 10
154.407
 20
138.093
 30
0.0
 11
161.407
 21
138.093
 31
0.0
  0
LINE
  5
9C
100
AcDbEntity
  8
1
  6
CONTINUOUS
100
AcDbLine
 10
154.407
 20
147.593
 30
0.0
 11
161.407
 21
147.593
 31
0.0
  0
LINE
  5
9D
100
AcDbEntity
  8
1
  6
CONTINUOUS
100
AcDbLine
 10
135.907
 20
139.043
 30
0.0
 11
135.907
 21
146.643
 31
0.0
  0
LINE
  5
9E
100
AcDbEntity
  8
1
  6
CONTINUOUS
100
AcDbLine
 10
136.157
 20
138.793
 30
0.0
 11
141.407
 21
138.793
 31
0.0
  0
LINE
  5
9F
100
AcDbEntity
  8
1
  6
CONTINUOUS
100
AcDbLine
 10
135.907
 20
139.043
 30
0.0
 11
136.157
 21
138.793
 31
0.0
  0
LINE
  5
A0
100
AcDbEntity
  8
1
  6
CONTINUOUS
100
AcDbLine
 10
141.407
 20
137.593
 30
0.0
 11
141.407
 21
148.112
 31
0.0
  0
LINE
  5
A1
100
AcDbEntity
  8
1
  6
CONTINUOUS
100
AcDbLine
 10
154.407
 20
137.593
 30
0.0
 11
154.407
 21
148.093
 31
0.0
  0
LINE
  5
A2
100
AcDbEntity
  8
1
  6
CONTINUOUS
100
AcDbLine
 10
142.157
 20
137.343
 30
0.0
 11
153.407
 21
137.343
 31
0.0
  0
LINE
  5
A3
100
AcDbEntity
  8
1
  6
CONTINUOUS
100
AcDbLine
 10
142.157
 20
137.343
 30
0.0
 11
142.157
 21
148.343
 31
0.0
  0
LINE
  5
A4
100
AcDbEntity
  8
1
  6
CONTINUOUS
100
AcDbLine
 10
153.407
 20
137.343
 30
0.0
 11
153.407
 21
148.343
 31
0.0
  0
LINE
  5
A5
100
AcDbEntity
  8
1
  6
CONTINUOUS
100
AcDbLine
 10
141.407
 20
137.593
 30
0.0
 11
142.157
 21
137.593
 31
0.0
  0
LINE
  5
A6
100
AcDbEntity
  8
1
  6
CONTINUOUS
100
AcDbLine
 10
153.407
 20
137.593
 30
0.0
 11
154.407
 21
137.593
 31
0.0
  0
LINE
  5
A7
100
AcDbEntity
  8
1
  6
CONTINUOUS
100
AcDbLine
 10
141.407
 20
146.893
 30
0.0
 11
136.157
 21
146.893
 31
0.0
  0
LINE
  5
A8
100
AcDbEntity
  8
1
  6
CONTINUOUS
100
AcDbLine
 10
136.157
 20
146.893
 30
0.0
 11
135.907
 21
146.643
 31
0.0
  0
LINE
  5
A9
100
AcDbEntity
  8
1
  6
CONTINUOUS
100
AcDbLine
 10
153.407
 20
148.343
 30
0.0
 11
142.157
 21
148.343
 31
0.0
  0
LINE
  5
AA
100
AcDbEntity
  8
1
  6
CONTINUOUS
100
AcDbLine
 10
142.157
 20
148.093
 30
0.0
 11
141.407
 21
148.093
 31
0.0
  0
LINE
  5
AB
100
AcDbEntity
  8
1
  6
CONTINUOUS
100
AcDbLine
 10
154.407
 20
148.093
 30
0.0
 11
153.407
 21
148.093
 31
0.0
  0
LINE
  5
AC
100
AcDbEntity
  8
1
  6
CONTINUOUS
100
AcDbLine
 10
162.372
 20
149.196
 30
0.0
 11
193.001
 21
150.266
 31
0.0
  0
LINE
  5
AD
100
AcDbEntity
  8
1
  6
CONTINUOUS
100
AcDbLine
 10
193.001
 20
135.42
 30
0.0
 11
162.372
 21
136.489
 31
0.0
  0
LINE
  5
AE
100
AcDbEntity
  8
1
  6
HIDDEN
100
AcDbLine
 10
163.157
 20
147.473
 30
0.0
 11
193.062
 21
148.517
 31
0.0
  0
LINE
  5
AF
100
AcDbEntity
  8
1
  6
HIDDEN
100
AcDbLine
 10
193.062
 20
137.169
 30
0.0
 11
163.157
 21
138.213
 31
0.0
  0
LINE
  5
B0
100
AcDbEntity
  8
1
  6
CONTINUOUS
100
AcDbLine
 10
126.407
 20
135.343
 30
0.0
 11
126.407
 21
150.343
 31
0.0
  0
LINE
  5
B1
100
AcDbEntity
  8
1
  6
CONTINUOUS
100
AcDbLine
 10
126.657
 20
133.843
 30
0.0
 11
126.657
 21
151.843
 31
0.0
  0
LINE
  5
B2
100
AcDbEntity
  8
1
  6
CONTINUOUS
100
AcDbLine
 10
129.407
 20
133.843
 30
0.0
 11
129.407
 21
151.843
 31
0.0
  0
LINE
  5
B3
100
AcDbEntity
  8
1
  6
CONTINUOUS
100
AcDbLine
 10
126.657
 20
133.843
 30
0.0
 11
129.407
 21
133.843
 31
0.0
  0
LINE
  5
B4
100
AcDbEntity
  8
1
  6
CONTINUOUS
100
AcDbLine
 10
126.657
 20
151.843
 30
0.0
 11
129.407
 21
151.843
 31
0.0
  0
LINE
  5
B5
100
AcDbEntity
  8
1
  6
CONTINUOUS
100
AcDbLine
 10
126.407
 20
135.343
 30
0.0
 11
126.657
 21
135.343
 31
0.0
  0
LINE
  5
B6
100
AcDbEntity
  8
1
  6
CONTINUOUS
100
AcDbLine
 10
126.407
 20
150.343
 30
0.0
 11
126.657
 21
150.343
 31
0.0
  0
LINE
  5
B7
100
AcDbEntity
  8
1
  6
CONTINUOUS
100
AcDbLine
 10
123.657
 20
141.643
 30
0.0
 11
123.657
 21
144.043
 31
0.0
  0
LINE
  5
B8
100
AcDbEntity
  8
1
  6
CONTINUOUS
100
AcDbLine
 10
123.888
 20
141.243
 30
0.0
 11
126.407
 21
141.243
 31
0.0
  0
LINE
  5
B9
100
AcDbEntity
  8
1
  6
CONTINUOUS
100
AcDbLine
 10
123.888
 20
144.443
 30
0.0
 11
126.407
 21
144.443
 31
0.0
  0
LINE
  5
BA
100
AcDbEntity
  8
1
  6
CONTINUOUS
100
AcDbLine
 10
123.657
 20
141.643
 30
0.0
 11
123.888
 21
141.243
 31
0.0
  0
LINE
  5
BB
100
AcDbEntity
  8
1
  6
CONTINUOUS
100
AcDbLine
 10
123.657
 20
144.043
 30
0.0
 11
123.888
 21
144.443
 31
0.0
  0
LINE
  5
BC
100
AcDbEntity
  8
1
  6
CONTINUOUS
100
AcDbLine
 10
123.657
 20
141.643
 30
0.0
 11
126.407
 21
141.643
 31
0.0
  0
LINE
  5
BD
100
AcDbEntity
  8
1
  6
CONTINUOUS
100
AcDbLine
 10
123.657
 20
144.043
 30
0.0
 11
126.407
 21
144.043
 31
0.0
  0
LINE
  5
BE
100
AcDbEntity
  8
1
  6
CONTINUOUS
100
AcDbLine
 10
123.888
 20
144.443
 30
0.0
 11
123.888
 21
141.243
 31
0.0
  0
LINE
  5
BF
100
AcDbEntity
  8
1
  6
CONTINUOUS
100
AcDbLine
 10
130.907
 20
139.843
 30
0.0
 11
130.907
 21
145.843
 31
0.0
  0
LINE
  5
C0
100
AcDbEntity
  8
1
  6
CONTINUOUS
100
AcDbLine
 10
135.657
 20
141.593
 30
0.0
 11
135.657
 21
144.093
 31
0.0
  0
LINE
  5
C1
100
AcDbEntity
  8
1
  6
CONTINUOUS
100
AcDbLine
 10
135.657
 20
141.593
 30
0.0
 11
130.907
 21
141.093
 31
0.0
  0
LINE
  5
C2
100
AcDbEntity
  8
1
  6
CONTINUOUS
100
AcDbLine
 10
130.907
 20
144.593
 30
0.0
 11
135.657
 21
144.093
 31
0.0
  0
LINE
  5
C3
100
AcDbEntity
  8
1
  6
CONTINUOUS
100
AcDbLine
 10
206.407
 20
125.343
 30
0.0
 11
206.407
 21
160.343
 31
0.0
  0
LINE
  5
C4
100
AcDbEntity
  8
1
  6
CONTINUOUS
100
AcDbLine
 10
199.907
 20
126.843
 30
0.0
 11
199.907
 21
158.843
 31
0.0
  0
LINE
  5
C5
100
AcDbEntity
  8
1
  6
CONTINUOUS
100
AcDbLine
 10
201.407
 20
125.343
 30
0.0
 11
206.407
 21
125.343
 31
0.0
  0
LINE
  5
C6
100
AcDbEntity
  8
1
  6
CONTINUOUS
100
AcDbLine
 10
201.407
 20
160.343
 30
0.0
 11
206.407
 21
160.343
 31
0.0
  0
LINE
  5
C7
100
AcDbEntity
  8
1
  6
CONTINUOUS
100
AcDbLine
 10
200.133
 20
159.635
 30
0.0
 11
195.036
 21
151.444
 31
0.0
  0
LINE
  5
C8
100
AcDbEntity
  8
1
  6
CONTINUOUS
100
AcDbLine
 10
200.133
 20
126.05
 30
0.0
 11
195.036
 21
134.242
 31
0.0
  0
LINE
  5
C9
100
AcDbEntity
  8
1
  6
HIDDEN
100
AcDbLine
 10
201.546
 20
127.093
 30
0.0
 11
196.522
 21
135.166
 31
0.0
  0
LINE
  5
CA
100
AcDbEntity
  8
1
  6
CONTINUOUS
100
AcDbLine
 10
201.546
 20
127.093
 30
0.0
 11
206.407
 21
127.093
 31
0.0
  0
LINE
  5
CB
100
AcDbEntity
  8
1
  6
HIDDEN
100
AcDbLine
 10
201.546
 20
158.593
 30
0.0
 11
206.407
 21
158.593
 31
0.0
  0
LINE
  5
CC
100
AcDbEntity
  8
1
  6
HIDDEN
100
AcDbLine
 10
201.619
 20
158.711
 30
0.0
 11
196.522
 21
150.519
 31
0.0
  0
LINE
  5
CD
100
AcDbEntity
  8
1
  6
CONTINUOUS
100
AcDbLine
 10
182.203
 20
140.343
 30
0.0
 11
184.731
 21
140.343
 31
0.0
  0
LINE
  5
CE
100
AcDbEntity
  8
1
  6
CONTINUOUS
100
AcDbLine
 10
182.203
 20
145.343
 30
0.0
 11
184.73
 21
145.343
 31
0.0
  0
LINE
  5
CF
100
AcDbEntity
  8
1
  6
CONTINUOUS
100
AcDbLine
 10
182.203
 20
146.343
 30
0.0
 11
194.884
 21
146.343
 31
0.0
  0
LINE
  5
D0
100
AcDbEntity
  8
1
  6
CONTINUOUS
100
AcDbLine
 10
182.203
 20
139.343
 30
0.0
 11
194.884
 21
139.343
 31
0.0
  0
LINE
  5
D1
100
AcDbEntity
  8
1
  6
HIDDEN
100
AcDbLine
 10
201.907
 20
151.593
 30
0.0
 11
201.907
 21
156.593
 31
0.0
  0
LINE
  5
D2
100
AcDbEntity
  8
1
  6
HIDDEN
100
AcDbLine
 10
201.907
 20
155.343
 30
0.0
 11
206.407
 21
155.343
 31
0.0
  0
LINE
  5
D3
100
AcDbEntity
  8
1
  6
HIDDEN
100
AcDbLine
 10
203.407
 20
156.843
 30
0.0
 11
206.407
 21
156.843
 31
0.0
  0
LINE
  5
D4
100
AcDbEntity
  8
1
  6
HIDDEN
100
AcDbLine
 10
203.407
 20
156.843
 30
0.0
 11
203.407
 21
158.093
 31
0.0
  0
LINE
  5
D5
100
AcDbEntity
  8
1
  6
HIDDEN
100
AcDbLine
 10
199.907
 20
156.593
 30
0.0
 11
201.907
 21
156.593
 31
0.0
  0
LINE
  5
D6
100
AcDbEntity
  8
1
  6
HIDDEN
100
AcDbLine
 10
201.528
 20
158.093
 30
0.0
 11
203.407
 21
158.093
 31
0.0
  0
LINE
  5
D7
100
AcDbEntity
  8
1
  6
HIDDEN
100
AcDbLine
 10
206.407
 20
152.843
 30
0.0
 11
201.907
 21
152.843
 31
0.0
  0
LINE
  5
D8
100
AcDbEntity
  8
1
  6
HIDDEN
100
AcDbLine
 10
206.407
 20
151.343
 30
0.0
 11
203.407
 21
151.343
 31
0.0
  0
LINE
  5
D9
100
AcDbEntity
  8
1
  6
HIDDEN
100
AcDbLine
 10
203.407
 20
150.093
 30
0.0
 11
203.407
 21
151.343
 31
0.0
  0
LINE
  5
DA
100
AcDbEntity
  8
1
  6
HIDDEN
100
AcDbLine
 10
201.907
 20
151.593
 30
0.0
 11
199.907
 21
151.593
 31
0.0
  0
LINE
  5
DB
100
AcDbEntity
  8
1
  6
HIDDEN
100
AcDbLine
 10
203.407
 20
150.093
 30
0.0
 11
201.657
 21
150.093
 31
0.0
  0
LINE
  5
DC
100
AcDbEntity
  8
1
  6
CONTINUOUS
100
AcDbLine
 10
201.907
 20
129.093
 30
0.0
 11
201.907
 21
134.093
 31
0.0
  0
LINE
  5
DD
100
AcDbEntity
  8
1
  6
CONTINUOUS
100
AcDbLine
 10
201.907
 20
132.843
 30
0.0
 11
206.407
 21
132.843
 31
0.0
  0
LINE
  5
DE
100
AcDbEntity
  8
1
  6
CONTINUOUS
100
AcDbLine
 10
203.407
 20
134.343
 30
0.0
 11
206.407
 21
134.343
 31
0.0
  0
LINE
  5
DF
100
AcDbEntity
  8
1
  6
CONTINUOUS
100
AcDbLine
 10
203.407
 20
134.343
 30
0.0
 11
203.407
 21
135.593
 31
0.0
  0
LINE
  5
E0
100
AcDbEntity
  8
1
  6
CONTINUOUS
100
AcDbLine
 10
199.907
 20
134.093
 30
0.0
 11
201.907
 21
134.093
 31
0.0
  0
LINE
  5
E1
100
AcDbEntity
  8
1
  6
CONTINUOUS
100
AcDbLine
 10
201.657
 20
135.593
 30
0.0
 11
203.407
 21
135.593
 31
0.0
  0
LINE
  5
E2
100
AcDbEntity
  8
1
  6
CONTINUOUS
100
AcDbLine
 10
206.407
 20
130.343
 30
0.0
 11
201.907
 21
130.343
 31
0.0
  0
LINE
  5
E3
100
AcDbEntity
  8
1
  6
CONTINUOUS
100
AcDbLine
 10
206.407
 20
128.843
 30
0.0
 11
203.407
 21
128.843
 31
0.0
  0
LINE
  5
E4
100
AcDbEntity
  8
1
  6
CONTINUOUS
100
AcDbLine
 10
203.407
 20
127.593
 30
0.0
 11
203.407
 21
128.843
 31
0.0
  0
LINE
  5
E5
100
AcDbEntity
  8
1
  6
CONTINUOUS
100
AcDbLine
 10
201.907
 20
129.093
 30
0.0
 11
199.907
 21
129.093
 31
0.0
  0
LINE
  5
E6
100
AcDbEntity
  8
1
  6
CONTINUOUS
100
AcDbLine
 10
203.407
 20
127.593
 30
0.0
 11
201.234
 21
127.593
 31
0.0
  0
LINE
  5
E7
100
AcDbEntity
  8
1
  6
HIDDEN
100
AcDbLine
 10
201.657
 20
138.04
 30
0.0
 11
201.657
 21
158.593
 31
0.0
  0
LINE
  5
E8
100
AcDbEntity
  8
1
  6
CONTINUOUS
100
AcDbLine
 10
201.657
 20
135.593
 30
0.0
 11
201.657
 21
138.04
 31
0.0
  0
LINE
  5
E9
100
AcDbEntity
  8
1
  6
CONTINUOUS
100
AcDbLine
 10
161.407
 20
62.666
 30
0.0
 11
161.407
 21
73.374
 31
0.0
  0
LINE
  5
EA
100
AcDbEntity
  8
1
  6
HIDDEN
100
AcDbLine
 10
163.157
 20
63.39
 30
0.0
 11
163.157
 21
72.65
 31
0.0
  0
LINE
  5
EB
100
AcDbEntity
  8
1
  6
CONTINUOUS
100
AcDbLine
 10
161.407
 20
148.197
 30
0.0
 11
161.407
 21
137.489
 31
0.0
  0
LINE
  5
EC
100
AcDbEntity
  8
1
  6
CONTINUOUS
100
AcDbLine
 10
163.157
 20
147.473
 30
0.0
 11
163.157
 21
138.213
 31
0.0
  0
LINE
  5
ED
100
AcDbEntity
  8
1
  6
HIDDEN
100
AcDbLine
 10
67.39
 20
75.77
 30
0.0
 11
79.89
 21
75.77
 31
0.0
  0
LINE
  5
EE
100
AcDbEntity
  8
1
  6
HIDDEN
100
AcDbLine
 10
67.39
 20
60.27
 30
0.0
 11
79.89
 21
60.27
 31
0.0
  0
LINE
  5
EF
100
AcDbEntity
  8
1
  6
HIDDEN
100
AcDbLine
 10
65.89
 20
74.27
 30
0.0
 11
65.89
 21
61.77
 31
0.0
  0
LINE
  5
F0
100
AcDbEntity
  8
1
  6
HIDDEN
100
AcDbLine
 10
81.39
 20
74.27
 30
0.0
 11
81.39
 21
61.77
 31
0.0
  0
LINE
  5
F1
100
AcDbEntity
  8
1
  6
CONTINUOUS
100
AcDbLine
 10
70.39
 20
78.77
 30
0.0
 11
70.39
 21
75.77
 31
0.0
  0
LINE
  5
F2
100
AcDbEntity
  8
1
  6
CONTINUOUS
100
AcDbLine
 10
76.89
 20
78.77
 30
0.0
 11
76.89
 21
75.77
 31
0.0
  0
LINE
  5
F3
100
AcDbEntity
  8
1
  6
CONTINUOUS
100
AcDbLine
 10
69.39
 20
78.77
 30
0.0
 11
69.39
 21
76.27
 31
0.0
  0
LINE
  5
F4
100
AcDbEntity
  8
1
  6
CONTINUOUS
100
AcDbLine
 10
77.89
 20
78.77
 30
0.0
 11
77.89
 21
76.27
 31
0.0
  0
ARC
  5
F5
100
AcDbEntity
  8
1
  6
CONTINUOUS
100
AcDbCircle
 10
58.64
 20
105.52
 30
0.0
 40
2.5
100
AcDbArc
 50
90.0
 51
180.0
  0
ARC
  5
F6
100
AcDbEntity
  8
1
  6
CONTINUOUS
100
AcDbCircle
 10
88.64
 20
105.52
 30
0.0
 40
2.5
100
AcDbArc
 50
0.0
 51
90.0
  0
ARC
  5
F7
100
AcDbEntity
  8
1
  6
CONTINUOUS
100
AcDbCircle
 10
88.64
 20
60.52
 30
0.0
 40
2.5
100
AcDbArc
 50
270.0
 51
0.0
  0
ARC
  5
F8
100
AcDbEntity
  8
1
  6
CONTINUOUS
100
AcDbCircle
 10
58.64
 20
60.52
 30
0.0
 40
2.5
100
AcDbArc
 50
180.0
 51
270.0
  0
ARC
  5
F9
100
AcDbEntity
  8
1
  6
HIDDEN
100
AcDbCircle
 10
68.89
 20
72.77
 30
0.0
 40
1.5
100
AcDbArc
 50
90.0
 51
180.0
  0
ARC
  5
FA
100
AcDbEntity
  8
1
  6
HIDDEN
100
AcDbCircle
 10
78.39
 20
72.77
 30
0.0
 40
1.5
100
AcDbArc
 50
0.0
 51
90.0
  0
ARC
  5
FB
100
AcDbEntity
  8
1
  6
HIDDEN
100
AcDbCircle
 10
78.39
 20
63.236
 30
0.0
 40
1.5
100
AcDbArc
 50
270.0
 51
0.0
  0
ARC
  5
FC
100
AcDbEntity
  8
1
  6
HIDDEN
100
AcDbCircle
 10
68.89
 20
63.236
 30
0.0
 40
1.5
100
AcDbArc
 50
180.0
 51
270.0
  0
CIRCLE
  5
FD
100
AcDbEntity
  8
1
  6
CONTINUOUS
100
AcDbCircle
 10
84.89
 20
101.77
 30
0.0
 40
2.5
  0
CIRCLE
  5
FE
100
AcDbEntity
  8
1
  6
CONTINUOUS
100
AcDbCircle
 10
84.89
 20
101.77
 30
0.0
 40
1.25
  0
CIRCLE
  5
FF
100
AcDbEntity
  8
1
  6
HIDDEN
100
AcDbCircle
 10
84.89
 20
101.77
 30
0.0
 40
4.0
  0
ARC
  5
100
100
AcDbEntity
  8
1
  6
CONTINUOUS
100
AcDbCircle
 10
201.407
 20
106.52
 30
0.0
 40
1.5
100
AcDbArc
 50
90.0
 51
180.0
  0
ARC
  5
101
100
AcDbEntity
  8
1
  6
CONTINUOUS
100
AcDbCircle
 10
201.407
 20
59.52
 30
0.0
 40
1.5
100
AcDbArc
 50
180.0
 51
270.0
  0
ARC
  5
102
100
AcDbEntity
  8
1
  6
CONTINUOUS
100
AcDbCircle
 10
194.243
 20
83.168
 30
0.0
 40
1.5
100
AcDbArc
 50
270.0
 51
350.0
  0
ARC
  5
103
100
AcDbEntity
  8
1
  6
CONTINUOUS
100
AcDbCircle
 10
185.767
 20
81.168
 30
0.0
 40
0.5
100
AcDbArc
 50
90.0
 51
270.0
  0
ARC
  5
104
100
AcDbEntity
  8
1
  6
CONTINUOUS
100
AcDbCircle
 10
131.907
 20
62.729
 30
0.0
 40
2.5
100
AcDbArc
 50
113.578
 51
180.0
  0
ARC
  5
105
100
AcDbEntity
  8
1
  6
CONTINUOUS
100
AcDbCircle
 10
131.907
 20
73.311
 30
0.0
 40
2.5
100
AcDbArc
 50
180.0
 51
246.422
  0
ARC
  5
106
100
AcDbEntity
  8
1
  6
HIDDEN
100
AcDbCircle
 10
138.384
 20
68.02
 30
0.0
 40
3.0
100
AcDbArc
 50
204.624
 51
155.376
  0
CIRCLE
  5
107
100
AcDbEntity
  8
1
  6
CONTINUOUS
100
AcDbCircle
 10
73.64
 20
68.02
 30
0.0
 40
9.0
  0
CIRCLE
  5
108
100
AcDbEntity
  8
1
  6
HIDDEN
100
AcDbCircle
 10
73.64
 20
68.02
 30
0.0
 40
7.5
  0
CIRCLE
  5
109
100
AcDbEntity
  8
1
  6
CONTINUOUS
100
AcDbCircle
 10
73.64
 20
68.02
 30
0.0
 40
1.6
  0
CIRCLE
  5
10A
100
AcDbEntity
  8
1
  6
CONTINUOUS
100
AcDbCircle
 10
73.64
 20
68.02
 30
0.0
 40
1.2
  0
CIRCLE
  5
10B
100
AcDbEntity
  8
1
  6
CONTINUOUS
100
AcDbCircle
 10
73.64
 20
68.02
 30
0.0
 40
2.5
  0
CIRCLE
  5
10C
100
AcDbEntity
  8
1
  6
HIDDEN
100
AcDbCircle
 10
73.64
 20
68.02
 30
0.0
 40
5.5
  0
CIRCLE
  5
10D
100
AcDbEntity
  8
1
  6
CONTINUOUS
100
AcDbCircle
 10
84.89
 20
64.27
 30
0.0
 40
2.5
  0
CIRCLE
  5
10E
100
AcDbEntity
  8
1
  6
CONTINUOUS
100
AcDbCircle
 10
84.89
 20
64.27
 30
0.0
 40
1.25
  0
CIRCLE
  5
10F
100
AcDbEntity
  8
1
  6
HIDDEN
100
AcDbCircle
 10
84.89
 20
64.27
 30
0.0
 40
4.0
  0
CIRCLE
  5
110
100
AcDbEntity
  8
1
  6
CONTINUOUS
100
AcDbCircle
 10
62.39
 20
101.77
 30
0.0
 40
2.5
  0
CIRCLE
  5
111
100
AcDbEntity
  8
1
  6
CONTINUOUS
100
AcDbCircle
 10
62.39
 20
101.77
 30
0.0
 40
1.25
  0
CIRCLE
  5
112
100
AcDbEntity
  8
1
  6
HIDDEN
100
AcDbCircle
 10
62.39
 20
101.77
 30
0.0
 40
4.0
  0
CIRCLE
  5
113
100
AcDbEntity
  8
1
  6
CONTINUOUS
100
AcDbCircle
 10
62.39
 20
64.27
 30
0.0
 40
2.5
  0
CIRCLE
  5
114
100
AcDbEntity
  8
1
  6
CONTINUOUS
100
AcDbCircle
 10
62.39
 20
64.27
 30
0.0
 40
1.25
  0
CIRCLE
  5
115
100
AcDbEntity
  8
1
  6
HIDDEN
100
AcDbCircle
 10
62.39
 20
64.27
 30
0.0
 40
4.0
  0
ARC
  5
116
100
AcDbEntity
  8
1
  6
HIDDEN
100
AcDbCircle
 10
58.64
 20
60.52
 30
0.0
 40
0.75
100
AcDbArc
 50
180.0
 51
270.0
  0
ARC
  5
117
100
AcDbEntity
  8
1
  6
CONTINUOUS
100
AcDbCircle
 10
88.64
 20
60.52
 30
0.0
 40
0.75
100
AcDbArc
 50
270.0
 51
0.0
  0
ARC
  5
118
100
AcDbEntity
  8
1
  6
CONTINUOUS
100
AcDbCircle
 10
88.64
 20
105.52
 30
0.0
 40
0.75
100
AcDbArc
 50
0.0
 51
90.0
  0
ARC
  5
119
100
AcDbEntity
  8
1
  6
CONTINUOUS
100
AcDbCircle
 10
58.64
 20
105.52
 30
0.0
 40
0.75
100
AcDbArc
 50
90.0
 51
180.0
  0
ARC
  5
11A
100
AcDbEntity
  8
1
  6
CONTINUOUS
100
AcDbCircle
 10
131.907
 20
137.551
 30
0.0
 40
2.5
100
AcDbArc
 50
113.578
 51
180.0
  0
ARC
  5
11B
100
AcDbEntity
  8
1
  6
CONTINUOUS
100
AcDbCircle
 10
131.907
 20
148.134
 30
0.0
 40
2.5
100
AcDbArc
 50
180.0
 51
246.422
  0
ARC
  5
11C
100
AcDbEntity
  8
1
  6
HIDDEN
100
AcDbCircle
 10
138.384
 20
142.843
 30
0.0
 40
3.0
100
AcDbArc
 50
204.625
 51
155.376
  0
ARC
  5
11D
100
AcDbEntity
  8
1
  6
CONTINUOUS
100
AcDbCircle
 10
201.407
 20
158.843
 30
0.0
 40
1.5
100
AcDbArc
 50
90.0
 51
180.0
  0
ARC
  5
11E
100
AcDbEntity
  8
1
  6
CONTINUOUS
100
AcDbCircle
 10
201.407
 20
126.843
 30
0.0
 40
1.5
100
AcDbArc
 50
180.0
 51
270.0
  0
ARC
  5
11F
100
AcDbEntity
  8
1
  6
CONTINUOUS
100
AcDbCircle
 10
192.302
 20
77.92
 30
0.0
 40
2.5
100
AcDbArc
 50
272.0
 51
350.0
  0
ARC
  5
120
100
AcDbEntity
  8
1
  6
CONTINUOUS
100
AcDbCircle
 10
182.085
 20
77.563
 30
0.0
 40
2.5
100
AcDbArc
 50
272.0
 51
350.0
  0
ARC
  5
121
100
AcDbEntity
  8
1
  6
CONTINUOUS
100
AcDbCircle
 10
193.423
 20
58.08
 30
0.0
 40
2.5
100
AcDbArc
 50
70.679
 51
88.0
  0
ARC
  5
122
100
AcDbEntity
  8
1
  6
HIDDEN
100
AcDbCircle
 10
192.302
 20
77.92
 30
0.0
 40
4.25
100
AcDbArc
 50
272.0
 51
350.0
  0
ARC
  5
123
100
AcDbEntity
  8
1
  6
CONTINUOUS
100
AcDbCircle
 10
193.423
 20
58.08
 30
0.0
 40
4.25
100
AcDbArc
 50
70.679
 51
88.0
  0
ARC
  5
124
100
AcDbEntity
  8
1
  6
CONTINUOUS
100
AcDbCircle
 10
192.914
 20
152.764
 30
0.0
 40
2.5
100
AcDbArc
 50
272.0
 51
328.11
  0
ARC
  5
125
100
AcDbEntity
  8
1
  6
CONTINUOUS
100
AcDbCircle
 10
192.914
 20
132.921
 30
0.0
 40
2.5
100
AcDbArc
 50
31.89
 51
88.0
  0
ARC
  5
126
100
AcDbEntity
  8
1
  6
HIDDEN
100
AcDbCircle
 10
192.914
 20
132.921
 30
0.0
 40
4.25
100
AcDbArc
 50
31.89
 51
88.0
  0
ARC
  5
127
100
AcDbEntity
  8
1
  6
HIDDEN
100
AcDbCircle
 10
192.914
 20
152.764
 30
0.0
 40
4.25
100
AcDbArc
 50
272.0
 51
328.11
  0
ARC
  5
128
100
AcDbEntity
  8
1
  6
CONTINUOUS
100
AcDbCircle
 10
162.407
 20
73.374
 30
0.0
 40
1.0
100
AcDbArc
 50
92.0
 51
180.0
  0
ARC
  5
129
100
AcDbEntity
  8
1
  6
CONTINUOUS
100
AcDbCircle
 10
162.407
 20
62.666
 30
0.0
 40
1.0
100
AcDbArc
 50
180.0
 51
268.0
  0
ARC
  5
12A
100
AcDbEntity
  8
1
  6
CONTINUOUS
100
AcDbCircle
 10
162.407
 20
148.197
 30
0.0
 40
1.0
100
AcDbArc
 50
92.0
 51
180.0
  0
ARC
  5
12B
100
AcDbEntity
  8
1
  6
CONTINUOUS
100
AcDbCircle
 10
162.407
 20
137.489
 30
0.0
 40
1.0
100
AcDbArc
 50
180.0
 51
268.0
  0
ARC
  5
12C
100
AcDbEntity
  8
1
  6
CONTINUOUS
100
AcDbCircle
 10
73.64
 20
78.77
 30
0.0
 40
3.25
100
AcDbArc
 50
0.0
 51
180.0
  0
ARC
  5
12D
100
AcDbEntity
  8
1
  6
CONTINUOUS
100
AcDbCircle
 10
79.89
 20
74.27
 30
0.0
 40
1.5
100
AcDbArc
 50
0.0
 51
90.0
  0
ARC
  5
12E
100
AcDbEntity
  8
1
  6
CONTINUOUS
100
AcDbCircle
 10
67.39
 20
74.27
 30
0.0
 40
1.5
100
AcDbArc
 50
90.0
 51
180.0
  0
ARC
  5
12F
100
AcDbEntity
  8
1
  6
CONTINUOUS
100
AcDbCircle
 10
67.39
 20
61.77
 30
0.0
 40
1.5
100
AcDbArc
 50
180.0
 51
270.0
  0
ARC
  5
130
100
AcDbEntity
  8
1
  6
CONTINUOUS
100
AcDbCircle
 10
79.89
 20
61.77
 30
0.0
 40
1.5
100
AcDbArc
 50
270.0
 51
0.0
  0
ARC
  5
131
100
AcDbEntity
  8
1
  6
CONTINUOUS
100
AcDbCircle
 10
73.64
 20
78.77
 30
0.0
 40
4.25
100
AcDbArc
 50
0.0
 51
180.0
  0
ARC
  5
132
100
AcDbEntity
  8
1
  6
CONTINUOUS
100
AcDbCircle
 10
78.39
 20
76.27
 30
0.0
 40
0.5
100
AcDbArc
 50
180.0
 51
270.0
  0
ARC
  5
133
100
AcDbEntity
  8
1
  6
CONTINUOUS
100
AcDbCircle
 10
68.89
 20
76.27
 30
0.0
 40
0.5
100
AcDbArc
 50
270.0
 51
0.0
  0
LINE
  5
134
100
AcDbEntity
  8
1
  6
CONTINUOUS
100
AcDbLine
 10
184.734
 20
140.343
 30
0.0
 11
184.833
 21
140.389
 31
0.0
  0
LINE
  5
135
100
AcDbEntity
  8
1
  6
CONTINUOUS
100
AcDbLine
 10
184.833
 20
140.389
 30
0.0
 11
184.928
 21
140.519
 31
0.0
  0
LINE
  5
136
100
AcDbEntity
  8
1
  6
CONTINUOUS
100
AcDbLine
 10
184.928
 20
140.519
 30
0.0
 11
185.017
 21
140.728
 31
0.0
  0
LINE
  5
137
100
AcDbEntity
  8
1
  6
CONTINUOUS
100
AcDbLine
 10
185.017
 20
140.728
 30
0.0
 11
185.095
 21
141.009
 31
0.0
  0
LINE
  5
138
100
AcDbEntity
  8
1
  6
CONTINUOUS
100
AcDbLine
 10
185.095
 20
141.009
 30
0.0
 11
185.162
 21
141.352
 31
0.0
  0
LINE
  5
139
100
AcDbEntity
  8
1
  6
CONTINUOUS
100
AcDbLine
 10
185.162
 20
141.352
 30
0.0
 11
185.213
 21
141.747
 31
0.0
  0
LINE
  5
13A
100
AcDbEntity
  8
1
  6
CONTINUOUS
100
AcDbLine
 10
185.213
 20
141.747
 30
0.0
 11
185.248
 21
142.178
 31
0.0
  0
LINE
  5
13B
100
AcDbEntity
  8
1
  6
CONTINUOUS
100
AcDbLine
 10
185.248
 20
142.178
 30
0.0
 11
185.266
 21
142.632
 31
0.0
  0
LINE
  5
13C
100
AcDbEntity
  8
1
  6
CONTINUOUS
100
AcDbLine
 10
185.266
 20
142.632
 30
0.0
 11
185.265
 21
143.094
 31
0.0
  0
LINE
  5
13D
100
AcDbEntity
  8
1
  6
CONTINUOUS
100
AcDbLine
 10
185.265
 20
143.094
 30
0.0
 11
185.246
 21
143.546
 31
0.0
  0
LINE
  5
13E
100
AcDbEntity
  8
1
  6
CONTINUOUS
100
AcDbLine
 10
185.246
 20
143.546
 30
0.0
 11
185.209
 21
143.975
 31
0.0
  0
LINE
  5
13F
100
AcDbEntity
  8
1
  6
CONTINUOUS
100
AcDbLine
 10
185.209
 20
143.975
 30
0.0
 11
185.156
 21
144.366
 31
0.0
  0
LINE
  5
140
100
AcDbEntity
  8
1
  6
CONTINUOUS
100
AcDbLine
 10
185.156
 20
144.366
 30
0.0
 11
185.089
 21
144.704
 31
0.0
  0
LINE
  5
141
100
AcDbEntity
  8
1
  6
CONTINUOUS
100
AcDbLine
 10
185.089
 20
144.704
 30
0.0
 11
185.009
 21
144.979
 31
0.0
  0
LINE
  5
142
100
AcDbEntity
  8
1
  6
CONTINUOUS
100
AcDbLine
 10
185.009
 20
144.979
 30
0.0
 11
184.92
 21
145.181
 31
0.0
  0
LINE
  5
143
100
AcDbEntity
  8
1
  6
CONTINUOUS
100
AcDbLine
 10
184.92
 20
145.181
 30
0.0
 11
184.825
 21
145.304
 31
0.0
  0
LINE
  5
144
100
AcDbEntity
  8
1
  6
CONTINUOUS
100
AcDbLine
 10
184.825
 20
145.304
 30
0.0
 11
184.726
 21
145.343
 31
0.0
  0
LINE
  5
145
100
AcDbEntity
  8
1
  6
CONTINUOUS
100
AcDbLine
 10
184.736
 20
139.343
 30
0.0
 11
184.835
 21
139.41
 31
0.0
  0
LINE
  5
146
100
AcDbEntity
  8
1
  6
CONTINUOUS
100
AcDbLine
 10
184.835
 20
139.41
 30
0.0
 11
184.93
 21
139.594
 31
0.0
  0
LINE
  5
147
100
AcDbEntity
  8
1
  6
CONTINUOUS
100
AcDbLine
 10
184.93
 20
139.594
 30
0.0
 11
185.018
 21
139.888
 31
0.0
  0
LINE
  5
148
100
AcDbEntity
  8
1
  6
CONTINUOUS
100
AcDbLine
 10
185.018
 20
139.888
 30
0.0
 11
185.097
 21
140.283
 31
0.0
  0
LINE
  5
149
100
AcDbEntity
  8
1
  6
CONTINUOUS
100
AcDbLine
 10
185.097
 20
140.283
 30
0.0
 11
185.163
 21
140.765
 31
0.0
  0
LINE
  5
14A
100
AcDbEntity
  8
1
  6
CONTINUOUS
100
AcDbLine
 10
185.163
 20
140.765
 30
0.0
 11
185.214
 21
141.318
 31
0.0
  0
LINE
  5
14B
100
AcDbEntity
  8
1
  6
CONTINUOUS
100
AcDbLine
 10
185.214
 20
141.318
 30
0.0
 11
185.249
 21
141.923
 31
0.0
  0
LINE
  5
14C
100
AcDbEntity
  8
1
  6
CONTINUOUS
100
AcDbLine
 10
185.249
 20
141.923
 30
0.0
 11
185.266
 21
142.559
 31
0.0
  0
LINE
  5
14D
100
AcDbEntity
  8
1
  6
CONTINUOUS
100
AcDbLine
 10
185.266
 20
142.559
 30
0.0
 11
185.265
 21
143.205
 31
0.0
  0
LINE
  5
14E
100
AcDbEntity
  8
1
  6
CONTINUOUS
100
AcDbLine
 10
185.265
 20
143.205
 30
0.0
 11
185.245
 21
143.839
 31
0.0
  0
LINE
  5
14F
100
AcDbEntity
  8
1
  6
CONTINUOUS
100
AcDbLine
 10
185.245
 20
143.839
 30
0.0
 11
185.208
 21
144.438
 31
0.0
  0
LINE
  5
150
100
AcDbEntity
  8
1
  6
CONTINUOUS
100
AcDbLine
 10
185.208
 20
144.438
 30
0.0
 11
185.155
 21
144.984
 31
0.0
  0
LINE
  5
151
100
AcDbEntity
  8
1
  6
CONTINUOUS
100
AcDbLine
 10
185.155
 20
144.984
 30
0.0
 11
185.088
 21
145.456
 31
0.0
  0
LINE
  5
152
100
AcDbEntity
  8
1
  6
CONTINUOUS
100
AcDbLine
 10
185.088
 20
145.456
 30
0.0
 11
185.008
 21
145.839
 31
0.0
  0
LINE
  5
153
100
AcDbEntity
  8
1
  6
CONTINUOUS
100
AcDbLine
 10
185.008
 20
145.839
 30
0.0
 11
184.918
 21
146.121
 31
0.0
  0
LINE
  5
154
100
AcDbEntity
  8
1
  6
CONTINUOUS
100
AcDbLine
 10
184.918
 20
146.121
 30
0.0
 11
184.823
 21
146.29
 31
0.0
  0
LINE
  5
155
100
AcDbEntity
  8
1
  6
CONTINUOUS
100
AcDbLine
 10
184.823
 20
146.29
 30
0.0
 11
184.724
 21
146.343
 31
0.0
  0
LINE
  5
156
100
AcDbEntity
  8
1
  6
CONTINUOUS
100
AcDbLine
 10
194.89
 20
139.343
 30
0.0
 11
195.005
 21
139.409
 31
0.0
  0
LINE
  5
157
100
AcDbEntity
  8
1
  6
CONTINUOUS
100
AcDbLine
 10
195.005
 20
139.409
 30
0.0
 11
195.116
 21
139.592
 31
0.0
  0
LINE
  5
158
100
AcDbEntity
  8
1
  6
CONTINUOUS
100
AcDbLine
 10
195.116
 20
139.592
 30
0.0
 11
195.218
 21
139.885
 31
0.0
  0
LINE
  5
159
100
AcDbEntity
  8
1
  6
CONTINUOUS
100
AcDbLine
 10
195.218
 20
139.885
 30
0.0
 11
195.31
 21
140.279
 31
0.0
  0
LINE
  5
15A
100
AcDbEntity
  8
1
  6
CONTINUOUS
100
AcDbLine
 10
195.31
 20
140.279
 30
0.0
 11
195.387
 21
140.761
 31
0.0
  0
LINE
  5
15B
100
AcDbEntity
  8
1
  6
CONTINUOUS
100
AcDbLine
 10
195.387
 20
140.761
 30
0.0
 11
195.446
 21
141.313
 31
0.0
  0
LINE
  5
15C
100
AcDbEntity
  8
1
  6
CONTINUOUS
100
AcDbLine
 10
195.446
 20
141.313
 30
0.0
 11
195.487
 21
141.918
 31
0.0
  0
LINE
  5
15D
100
AcDbEntity
  8
1
  6
CONTINUOUS
100
AcDbLine
 10
195.487
 20
141.918
 30
0.0
 11
195.507
 21
142.554
 31
0.0
  0
LINE
  5
15E
100
AcDbEntity
  8
1
  6
CONTINUOUS
100
AcDbLine
 10
195.507
 20
142.554
 30
0.0
 11
195.506
 21
143.2
 31
0.0
  0
LINE
  5
15F
100
AcDbEntity
  8
1
  6
CONTINUOUS
100
AcDbLine
 10
195.506
 20
143.2
 30
0.0
 11
195.484
 21
143.833
 31
0.0
  0
LINE
  5
160
100
AcDbEntity
  8
1
  6
CONTINUOUS
100
AcDbLine
 10
195.484
 20
143.833
 30
0.0
 11
195.441
 21
144.433
 31
0.0
  0
LINE
  5
161
100
AcDbEntity
  8
1
  6
CONTINUOUS
100
AcDbLine
 10
195.441
 20
144.433
 30
0.0
 11
195.379
 21
144.979
 31
0.0
  0
LINE
  5
162
100
AcDbEntity
  8
1
  6
CONTINUOUS
100
AcDbLine
 10
195.379
 20
144.979
 30
0.0
 11
195.301
 21
145.452
 31
0.0
  0
LINE
  5
163
100
AcDbEntity
  8
1
  6
CONTINUOUS
100
AcDbLine
 10
195.301
 20
145.452
 30
0.0
 11
195.208
 21
145.836
 31
0.0
  0
LINE
  5
164
100
AcDbEntity
  8
1
  6
CONTINUOUS
100
AcDbLine
 10
195.208
 20
145.836
 30
0.0
 11
195.104
 21
146.119
 31
0.0
  0
LINE
  5
165
100
AcDbEntity
  8
1
  6
CONTINUOUS
100
AcDbLine
 10
195.104
 20
146.119
 30
0.0
 11
194.993
 21
146.289
 31
0.0
  0
LINE
  5
166
100
AcDbEntity
  8
1
  6
CONTINUOUS
100
AcDbLine
 10
194.993
 20
146.289
 30
0.0
 11
194.878
 21
146.343
 31
0.0
  0
TEXT
  5
167
100
AcDbEntity
  8
1
100
AcDbText
 10
72.66
 20
118.292
 30
0.0
 40
2.12
  1
70
  7
KANJI
100
AcDbText
  0
LINE
  5
168
100
AcDbEntity
  8
1
  6
CONTINUOUS
100
AcDbLine
 10
56.14
 20
109.039
 30
0.0
 11
56.14
 21
118.792
 31
0.0
  0
LINE
  5
169
100
AcDbEntity
  8
1
  6
CONTINUOUS
100
AcDbLine
 10
91.14
 20
109.039
 30
0.0
 11
91.14
 21
118.792
 31
0.0
  0
LINE
  5
16A
100
AcDbEntity
  8
1
  6
CONTINUOUS
100
AcDbLine
 10
56.14
 20
117.792
 30
0.0
 11
91.14
 21
117.792
 31
0.0
  0
LINE
  5
16B
100
AcDbEntity
  8
1
  6
CONTINUOUS
100
AcDbLine
 10
56.14
 20
117.792
 30
0.0
 11
57.106
 21
118.051
 31
0.0
  0
LINE
  5
16C
100
AcDbEntity
  8
1
  6
CONTINUOUS
100
AcDbLine
 10
56.14
 20
117.792
 30
0.0
 11
57.106
 21
117.533
 31
0.0
  0
LINE
  5
16D
100
AcDbEntity
  8
1
  6
CONTINUOUS
100
AcDbLine
 10
91.14
 20
117.792
 30
0.0
 11
90.174
 21
117.533
 31
0.0
  0
LINE
  5
16E
100
AcDbEntity
  8
1
  6
CONTINUOUS
100
AcDbLine
 10
91.14
 20
117.792
 30
0.0
 11
90.174
 21
118.051
 31
0.0
  0
TEXT
  5
16F
100
AcDbEntity
  8
1
100
AcDbText
 10
107.397
 20
81.55
 30
0.0
 40
2.12
  1
100
 50
90.0
  7
KANJI
100
AcDbText
  0
LINE
  5
170
100
AcDbEntity
  8
1
  6
CONTINUOUS
100
AcDbLine
 10
92.152
 20
58.02
 30
0.0
 11
108.897
 21
58.02
 31
0.0
  0
LINE
  5
171
100
AcDbEntity
  8
1
  6
CONTINUOUS
100
AcDbLine
 10
92.152
 20
108.02
 30
0.0
 11
108.897
 21
108.02
 31
0.0
  0
LINE
  5
172
100
AcDbEntity
  8
1
  6
CONTINUOUS
100
AcDbLine
 10
107.897
 20
58.02
 30
0.0
 11
107.897
 21
108.02
 31
0.0
  0
LINE
  5
173
100
AcDbEntity
  8
1
  6
CONTINUOUS
100
AcDbLine
 10
107.897
 20
58.02
 30
0.0
 11
107.638
 21
58.986
 31
0.0
  0
LINE
  5
174
100
AcDbEntity
  8
1
  6
CONTINUOUS
100
AcDbLine
 10
107.897
 20
58.02
 30
0.0
 11
108.156
 21
58.986
 31
0.0
  0
LINE
  5
175
100
AcDbEntity
  8
1
  6
CONTINUOUS
100
AcDbLine
 10
107.897
 20
108.02
 30
0.0
 11
108.156
 21
107.054
 31
0.0
  0
LINE
  5
176
100
AcDbEntity
  8
1
  6
CONTINUOUS
100
AcDbLine
 10
107.897
 20
108.02
 30
0.0
 11
107.638
 21
107.054
 31
0.0
  0
LINE
  5
177
100
AcDbEntity
  8
1
  6
CONTINUOUS
100
AcDbLine
 10
92.173
 20
58.02
 30
0.0
 11
98.401
 21
58.02
 31
0.0
  0
LINE
  5
178
100
AcDbEntity
  8
1
  6
CONTINUOUS
100
AcDbLine
 10
92.155
 20
58.02
 30
0.0
 11
105.403
 21
58.02
 31
0.0
  0
TEXT
  5
179
100
AcDbEntity
  8
1
100
AcDbText
 10
164.937
 20
114.792
 30
0.0
 40
2.12
  1
160
  7
KANJI
100
AcDbText
  0
LINE
  5
17A
100
AcDbEntity
  8
1
  6
CONTINUOUS
100
AcDbLine
 10
126.407
 20
76.525
 30
0.0
 11
126.407
 21
115.292
 31
0.0
  0
LINE
  5
17B
100
AcDbEntity
  8
1
  6
CONTINUOUS
100
AcDbLine
 10
206.407
 20
109.049
 30
0.0
 11
206.407
 21
115.292
 31
0.0
  0
LINE
  5
17C
100
AcDbEntity
  8
1
  6
CONTINUOUS
100
AcDbLine
 10
126.407
 20
114.292
 30
0.0
 11
206.407
 21
114.292
 31
0.0
  0
LINE
  5
17D
100
AcDbEntity
  8
1
  6
CONTINUOUS
100
AcDbLine
 10
126.407
 20
114.292
 30
0.0
 11
127.373
 21
114.551
 31
0.0
  0
LINE
  5
17E
100
AcDbEntity
  8
1
  6
CONTINUOUS
100
AcDbLine
 10
126.407
 20
114.292
 30
0.0
 11
127.373
 21
114.033
 31
0.0
  0
LINE
  5
17F
100
AcDbEntity
  8
1
  6
CONTINUOUS
100
AcDbLine
 10
206.407
 20
114.292
 30
0.0
 11
205.441
 21
114.033
 31
0.0
  0
LINE
  5
180
100
AcDbEntity
  8
1
  6
CONTINUOUS
100
AcDbLine
 10
206.407
 20
114.292
 30
0.0
 11
205.441
 21
114.551
 31
0.0
  0
LINE
  5
181
100
AcDbEntity
  8
1
  6
CONTINUOUS
100
AcDbLine
 10
206.407
 20
109.078
 30
0.0
 11
206.407
 21
111.792
 31
0.0
  0
LINE
  5
182
100
AcDbEntity
  8
1
  6
CONTINUOUS
100
AcDbLine
 10
92.161
 20
58.02
 30
0.0
 11
101.903
 21
58.02
 31
0.0
  0
LINE
  5
183
100
AcDbEntity
  8
1
  6
CONTINUOUS
100
AcDbLine
 10
197.968
 20
135.401
 30
0.0
 11
198.943
 21
136.322
 31
0.0
  0
LINE
  5
184
100
AcDbEntity
  8
1
  6
CONTINUOUS
100
AcDbLine
 10
198.943
 20
136.322
 30
0.0
 11
199.899
 21
137.138
 31
0.0
  0
LINE
  5
185
100
AcDbEntity
  8
1
  6
CONTINUOUS
100
AcDbLine
 10
199.899
 20
137.138
 30
0.0
 11
200.815
 21
137.748
 31
0.0
  0
LINE
  5
186
100
AcDbEntity
  8
1
  6
CONTINUOUS
100
AcDbLine
 10
200.815
 20
137.748
 30
0.0
 11
201.253
 21
137.943
 31
0.0
  0
LINE
  5
187
100
AcDbEntity
  8
1
  6
CONTINUOUS
100
AcDbLine
 10
201.253
 20
137.943
 30
0.0
 11
201.674
 21
138.048
 31
0.0
  0
LINE
  5
188
100
AcDbEntity
  8
1
  6
CONTINUOUS
100
AcDbLine
 10
201.674
 20
138.048
 30
0.0
 11
201.674
 21
138.048
 31
0.0
  0
LINE
  5
189
100
AcDbEntity
  8
1
  6
CONTINUOUS
100
AcDbLine
 10
201.674
 20
138.048
 30
0.0
 11
202.076
 21
138.054
 31
0.0
  0
LINE
  5
18A
100
AcDbEntity
  8
1
  6
CONTINUOUS
100
AcDbLine
 10
202.076
 20
138.054
 30
0.0
 11
202.46
 21
137.975
 31
0.0
  0
LINE
  5
18B
100
AcDbEntity
  8
1
  6
CONTINUOUS
100
AcDbLine
 10
202.46
 20
137.975
 30
0.0
 11
203.178
 21
137.634
 31
0.0
  0
LINE
  5
18C
100
AcDbEntity
  8
1
  6
CONTINUOUS
100
AcDbLine
 10
203.178
 20
137.634
 30
0.0
 11
204.453
 21
136.725
 31
0.0
  0
LINE
  5
18D
100
AcDbEntity
  8
1
  6
CONTINUOUS
100
AcDbLine
 10
204.453
 20
136.725
 30
0.0
 11
204.453
 21
136.725
 31
0.0
  0
LINE
  5
18E
100
AcDbEntity
  8
1
  6
CONTINUOUS
100
AcDbLine
 10
204.453
 20
136.725
 30
0.0
 11
205.248
 21
136.343
 31
0.0
  0
LINE
  5
18F
100
AcDbEntity
  8
1
  6
CONTINUOUS
100
AcDbLine
 10
205.248
 20
136.343
 30
0.0
 11
205.981
 21
136.246
 31
0.0
  0
LINE
  5
190
100
AcDbEntity
  8
1
  6
CONTINUOUS
100
AcDbLine
 10
205.981
 20
136.246
 30
0.0
 11
206.658
 21
136.393
 31
0.0
  0
LINE
  5
191
100
AcDbEntity
  8
1
  6
CONTINUOUS
100
AcDbLine
 10
206.658
 20
136.393
 30
0.0
 11
207.291
 21
136.744
 31
0.0
  0
LINE
  5
192
100
AcDbEntity
  8
1
  6
CONTINUOUS
100
AcDbLine
 10
207.291
 20
136.744
 30
0.0
 11
207.887
 21
137.259
 31
0.0
  0
LINE
  5
193
100
AcDbEntity
  8
1
  6
CONTINUOUS
100
AcDbLine
 10
207.887
 20
137.259
 30
0.0
 11
208.455
 21
137.895
 31
0.0
  0
LINE
  5
194
100
AcDbEntity
  8
1
  6
CONTINUOUS
100
AcDbLine
 10
208.455
 20
137.895
 30
0.0
 11
209.548
 21
139.371
 31
0.0
  0
LINE
  5
1D9
100
AcDbEntity
  8
1
100
AcDbLine
 10
62.39
 20
101.77
 30
0.0
 11
62.39
 21
112.539803
 31
0.0
  0
LINE
  5
1DA
100
AcDbEntity
  8
1
100
AcDbLine
 10
84.89
 20
101.77
 30
0.0
 11
84.89
 21
112.539803
 31
0.0
  0
LINE
  5
1DB
100
AcDbEntity
  8
1
100
AcDbLine
 10
63.39
 20
112.539803
 30
0.0
 11
83.89
 21
112.539803
 31
0.0
  0
INSERT
  5
1DC
100
AcDbEntity
  8
1
100
AcDbBlockReference
  2
_OPEN30
 10
62.39
 20
112.539803
 30
0.0
 50
180.0
  0
INSERT
  5
1DD
100
AcDbEntity
  8
1
100
AcDbBlockReference
  2
_OPEN30
 10
84.89
 20
112.539803
 30
0.0
  0
MTEXT
  5
1DE
100
AcDbEntity
  8
1
100
AcDbMText
 10
73.64
 20
113.688136
 30
0.0
 40
2.116667
 41
0.0
 71
     5
 72
     1
  1
\A1;45
  0
LINE
  5
1DF
100
AcDbEntity
  8
1
100
AcDbLine
 10
62.39
 20
64.27
 30
0.0
 11
50.733738
 21
64.27
 31
0.0
  0
LINE
  5
1E0
100
AcDbEntity
  8
1
100
AcDbLine
 10
62.39
 20
101.77
 30
0.0
 11
50.733738
 21
101.77
 31
0.0
  0
LINE
  5
1E1
100
AcDbEntity
  8
1
100
AcDbLine
 10
50.733738
 20
65.27
 30
0.0
 11
50.733738
 21
100.77
 31
0.0
  0
INSERT
  5
1E2
100
AcDbEntity
  8
1
100
AcDbBlockReference
  2
_OPEN30
 10
50.733738
 20
64.27
 30
0.0
 50
270.0
  0
INSERT
  5
1E3
100
AcDbEntity
  8
1
100
AcDbBlockReference
  2
_OPEN30
 10
50.733738
 20
101.77
 30
0.0
 50
90.0
  0
MTEXT
  5
1E4
100
AcDbEntity
  8
1
100
AcDbMText
 10
49.585405
 20
83.02
 30
0.0
 40
2.116667
 41
0.0
 71
     5
 72
     1
  1
\A1;75
 11
0.0
 21
1.0
 31
0.0
  0
MTEXT
  5
1E6
100
AcDbEntity
  8
1
100
AcDbMText
 10
69.268033
 20
48.468698
 30
0.0
 40
2.116667
 41
10.94013
 71
     6
 72
     1
  1
4-%%c5穴
  7
STANDARD1
  0
LEADER
  5
1E7
100
AcDbEntity
  8
1
100
AcDbLeader
  3
STANDARD
 40
2.116667
 41
7.408334
 76
     3
 10
84.0
 20
62.0
 30
0.0
 10
72.0
 20
47.0
 30
0.0
 10
58.0
 20
47.0
 30
0.0
 77
   256
213
1.0
223
1.058333500000002
233
0.0
1001
ACAD
1000
DSTYLE
1002
{
1070
   140
1040
2.116667
1070
    73
1070
     0
1070
    77
1070
     1
1070
   173
1070
     1
1070
    42
1040
0.0
1070
    44
1040
0.0
1070
    43
1040
0.5
1070
   141
1040
0.0
1070
     7
1000
_OPEN30
1070
     6
1000
_OPEN30
1070
    41
1040
1.0
1070
   143
1040
1.0
1070
   171
1070
     0
1002
}
  0
TEXT
  5
239
100
AcDbEntity
  8
1
  6
CONTINUOUS
 62
     7
100
AcDbText
 10
6.531
 20
42.913
 30
0.0
 40
2.304
  1
　
 41
0.573
  7
KANJI
100
AcDbText
  0
LINE
  5
242
100
AcDbEntity
  8
0
100
AcDbLine
 10
281.0
 20
4.0
 30
0.0
 11
201.0
 21
4.0
 31
0.0
  0
LINE
  5
243
100
AcDbEntity
  8
0
100
AcDbLine
 10
281.0
 20
20.0
 30
0.0
 11
281.0
 21
4.0
 31
0.0
  0
LINE
  5
244
100
AcDbEntity
  8
0
100
AcDbLine
 10
281.0
 20
12.0
 30
0.0
 11
201.0
 21
12.0
 31
0.0
  0
LINE
  5
245
100
AcDbEntity
  8
0
100
AcDbLine
 10
281.0
 20
20.0
 30
0.0
 11
201.0
 21
20.0
 31
0.0
  0
LINE
  5
246
100
AcDbEntity
  8
0
100
AcDbLine
 10
221.0
 20
20.0
 30
0.0
 11
221.0
 21
4.0
 31
0.0
  0
LINE
  5
247
100
AcDbEntity
  8
0
100
AcDbLine
 10
201.0
 20
20.0
 30
0.0
 11
201.0
 21
4.0
 31
0.0
  0
TEXT
  5
248
100
AcDbEntity
  8
0
100
AcDbText
 10
206.93529
 20
13.671686
 30
0.0
 40
4.0
  1
品名
  7
STANDARD1
100
AcDbText
  0
TEXT
  5
249
100
AcDbEntity
  8
0
100
AcDbText
 10
206.93529
 20
5.671686
 30
0.0
 40
4.0
  1
型名
  7
STANDARD1
100
AcDbText
  0
TEXT
  5
24A
100
AcDbEntity
  8
0
100
AcDbText
 10
222.93529
 20
13.671686
 30
0.0
 40
4.0
  1
カメラケース取付足
  7
STANDARD1
100
AcDbText
  0
TEXT
  5
24B
100
AcDbEntity
  8
0
100
AcDbText
 10
222.93529
 20
5.671686
 30
0.0
 40
4.0
  1
A-5624
  7
STANDARD1
100
AcDbText
  0
LINE
  5
25E
100
AcDbEntity
  8
1
100
AcDbLine
 10
57.25322
 20
58.02
 30
0.0
 11
50.763662
 21
58.02
 31
0.0
  0
LINE
  5
25F
100
AcDbEntity
  8
1
100
AcDbLine
 10
62.39
 20
64.27
 30
0.0
 11
50.763662
 21
64.27
 31
0.0
  0
LINE
  5
260
100
AcDbEntity
  8
1
100
AcDbLine
 10
50.763662
 20
49.830592
 30
0.0
 11
50.763662
 21
63.27
 31
0.0
  0
INSERT
  5
263
100
AcDbEntity
  8
1
100
AcDbBlockReference
  2
_OPEN30
 10
50.763662
 20
58.02
 30
0.0
 50
270.0
  0
INSERT
  5
264
100
AcDbEntity
  8
1
100
AcDbBlockReference
  2
_OPEN30
 10
50.763662
 20
64.27
 30
0.0
 50
90.0
  0
MTEXT
  5
266
100
AcDbEntity
  8
1
100
AcDbMText
 10
49.08349
 20
53.496288
 30
0.0
 40
2.116667
 41
0.0
 71
     5
 72
     1
  1
12.5
 11
0.0
 21
1.0
 31
0.0
  0
ENDSEC
  0
SECTION
  2
OBJECTS
  0
DICTIONARY
  5
C
100
AcDbDictionary
  3
ACAD_GROUP
350
D
  3
ACAD_MLINESTYLE
350
1B
  0
DICTIONARY
  5
D
102
{ACAD_REACTORS
330
C
102
}
100
AcDbDictionary
  3
*A1
350
21B
  3
*A2
350
21C
  3
*A3
350
21D
  3
*A4
350
21E
  3
*A5
350
21F
  3
*A6
350
24D
  3
*A7
350
24E
  3
*A8
350
24F
  0
DICTIONARY
  5
1B
102
{ACAD_REACTORS
330
C
102
}
100
AcDbDictionary
  3
STANDARD
350
1C
  0
GROUP
  5
21B
102
{ACAD_REACTORS
330
D
102
}
100
AcDbGroup
300

 70
     3
 71
     1
340
207
340
206
340
209
340
208
  0
GROUP
  5
21C
102
{ACAD_REACTORS
330
D
102
}
100
AcDbGroup
300

 70
     3
 71
     1
340
203
340
202
340
205
340
204
  0
GROUP
  5
21D
102
{ACAD_REACTORS
330
D
102
}
100
AcDbGroup
300

 70
     3
 71
     1
340
227
340
226
340
229
340
228
  0
GROUP
  5
21E
102
{ACAD_REACTORS
330
D
102
}
100
AcDbGroup
300

 70
     3
 71
     1
340
222
340
223
340
224
340
225
  0
GROUP
  5
21F
102
{ACAD_REACTORS
330
D
102
}
100
AcDbGroup
300

 70
     3
 71
     1
340
234
340
227
340
226
340
229
340
228
  0
GROUP
  5
24D
102
{ACAD_REACTORS
330
D
102
}
100
AcDbGroup
300

 70
     1
 71
     1
  0
GROUP
  5
24E
102
{ACAD_REACTORS
330
D
102
}
100
AcDbGroup
300

 70
     1
 71
     1
  0
GROUP
  5
24F
102
{ACAD_REACTORS
330
D
102
}
100
AcDbGroup
300

 70
     1
 71
     1
  0
MLINESTYLE
  5
1C
102
{ACAD_REACTORS
330
1B
102
}
100
AcDbMlineStyle
  2
STANDARD
 70
     0
  3

 62
   256
 51
90.0
 52
90.0
 71
     2
 49
0.5
 62
   256
  6
BYLAYER
 49
-0.5
 62
   256
  6
BYLAYER
  0
ENDSEC
  0
EOF
