  0
SECTION
  2
HEADER
  9
$ACADVER
  1
AC1006
  9
$INSBASE
 10
0.000000
 20
0.000000
  9
$EXTMIN
 10
0.000000
 20
0.000000
  9
$EXTMAX
 10
197.355000
 20
285.071000
  9
$LIMMIN
 10
0.000000
 20
0.000000
  9
$LIMMAX
 10
197.355000
 20
285.071000
  9
$VIEWCTR
 10
98.677500
 20
142.535500
  9
$VIEWSIZE
 40
197.356000
  9
$SNAPMODE
 70
     0
  9
$SNAPUNIT
 10
1.000000
 20
1.000000
  9
$SNAPBASE
 10
0.000000
 20
0.000000
  9
$SNAPANG
 50
0.000000
  9
$SNAPISOPAIR
 70
     0
  9
$SNAPSTYLE
 70
     0
  9
$GRIDMODE
 70
     0
  9
$GRIDUNIT
 10
10.000000
 20
10.000000
  9
$ORTHOMODE
 70
     0
  9
$REGENMODE
 70
     1
  9
$FILLMODE
 70
     1
  9
$QTEXTMODE
 70
     0
  9
$DRAGMODE
 70
     2
  9
$LTSCALE
 40
1.000000
  9
$OSMODE
 70
     0
  9
$ATTMODE
 70
     1
  9
$TEXTSIZE
 40
3.175000
  9
$TEXTSTYLE
  7
STANDARD
  9
$TRACEWID
 40
0.050000
  9
$CLAYER
  8
1
  9
$CELTYPE
  6
BYLAYER
  9
$CECOLOR
 62
   256
  9
$DIMSCALE
 40
1.000000
  9
$DIMASZ
 40
1.000000
  9
$DIMEXO
 40
0.000000
  9
$DIMDLI
 40
0.500000
  9
$DIMRND
 40
0.000000
  9
$DIMDLE
 40
0.000000
  9
$DIMEXE
 40
0.000000
  9
$DIMTP
 40
0.000000
  9
$DIMTM
 40
0.000000
  9
$DIMTXT
 40
2.822222
  9
$DIMCEN
 40
0.000000
  9
$DIMTSZ
 40
0.000000
  9
$DIMTOL
 70
     0
  9
$DIMLIM
 70
     0
  9
$DIMTIH
 70
     1
  9
$DIMTOH
 70
     1
  9
$DIMSE1
 70
     0
  9
$DIMSE2
 70
     0
  9
$DIMTAD
 70
     0
  9
$DIMZIN
 70
     0
  9
$DIMBLK
  1

  9
$DIMASO
 70
     0
  9
$DIMSHO
 70
     0
  9
$DIMPOST
  1

  9
$DIMAPOST
  1

  9
$DIMALT
 70
     0
  9
$DIMALTD
 70
     0
  9
$DIMALTF
 40
1.000000
  9
$DIMLFAC
 40
0.000000
  9
$DIMTOFL
 70
     0
  9
$DIMTVP
 40
0.000000
  9
$DIMTIX
 70
     0
  9
$DIMSOXD
 70
     0
  9
$DIMSAH
 70
     0
  9
$DIMBLKL
  1

  9
$DIMBLKR
  1

  9
$LUNITS
 70
     2
  9
$LUPREC
 70
     2
  9
$AXISMODE
 70
     0
  9
$AXISUNIT
 10
1.000000
 20
1.000000
  9
$SKETCHINC
 40
1.000000
  9
$FILLETRAD
 40
0.000000
  9
$AUNITS
 70
     1
  9
$AUPREC
 70
     2
  9
$MENU
  1
ACAD
  9
$ELEVATION
 40
0.000000
  9
$THICKNESS
 40
0.000000
  9
$VIEWDIR
 10
0.000000
 20
0.000000
 30
1.000000
  9
$LIMCHECK
 70
     1
  9
$BLIPMODE
 70
     1
  9
$CHAMFERA
 40
0.000000
  9
$CHAMFERB
 40
0.000000
  9
$FASTZOOM
 70
     1
  9
$SKPOLY
 70
     0
  9
$TDCREATE
 40
0.000000
  9
$TDUPDATE
 40
0.000000
  9
$TDINDWG
 40
0.000000
  9
$TDUSRTIMER
 40
0.000000
  9
$USRTIMER
 70
     1
  9
$ANGBASE
 50
0.000000
  9
$ANGDIR
 70
     0
  9
$PDMODE
 70
     0
  9
$PDSIZE
 40
0.400000
  9
$PLINEWID
 40
0.000000
  9
$COORDS
 70
     2
  9
$USERI1
 70
     0
  9
$USERI2
 70
     0
  9
$USERI3
 70
     0
  9
$USERI4
 70
     0
  9
$USERI5
 70
     0
  9
$USERR1
 40
0.000000
  9
$USERR2
 40
0.000000
  9
$USERR3
 40
0.000000
  9
$USERR4
 40
0.000000
  9
$USERR5
 40
0.000000
  0
ENDSEC
  0
SECTION
  2
TABLES
  0
TABLE
  2
LTYPE
 70
     5
  0
LTYPE
  2
CONTINUOUS
 70
    64
  3
SolidLine
 72
    65
 73
     0
 40
0.0
  0
LTYPE
  2
HIDDEN
 70
    64
  3
- - - - - - - - - -
 72
    65
 73
     2
 40
3.000000
 49
2.000000
 49
-1.000000
  0
LTYPE
  2
DOT
 70
    64
  3
･･･････････････････
 72
    65
 73
     2
 40
2.000000
 49
0.500000
 49
-1.500000
  0
LTYPE
  2
DASHDOT
 70
    64
  3
-･-･-･-･-･-･-･-･-･-
 72
    65
 73
     4
 40
20.000000
 49
15.000000
 49
-2.000000
 49
1.000000
 49
-2.000000
  0
LTYPE
  2
DIVIDE
 70
    64
  3
-･･-･･-･･-･･-･･-･･-
 72
    65
 73
     6
 40
20.000000
 49
15.000000
 49
-1.000000
 49
1.000000
 49
-1.000000
 49
1.000000
 49
-1.000000
  0
ENDTAB
  0
TABLE
  2
LAYER
 70
    30
  0
LAYER
  2
CONTINUOUS
 70
    64
 62
     7
  6
CONTINUOUS
  0
LAYER
  2
HIDDEN
 70
    64
 62
     2
  6
HIDDEN
  0
LAYER
  2
DOT
 70
    64
 62
     7
  6
DOT
  0
LAYER
  2
DASHDOT
 70
    64
 62
     6
  6
DASHDOT
  0
LAYER
  2
DIVIDE
 70
    64
 62
     5
  6
DIVIDE
  0
LAYER
  2
DIMENSION
 70
    64
 62
     7
  6
CONTINUOUS
  0
LAYER
  2
1
70
  0
62
  7
6
CONTINUOUS
  0
LAYER
  2
2
70
  0
62
  7
6
CONTINUOUS
  0
LAYER
  2
3
70
  0
62
  7
6
CONTINUOUS
  0
LAYER
  2
4
70
  0
62
  7
6
CONTINUOUS
  0
LAYER
  2
5
70
  0
62
  7
6
CONTINUOUS
  0
LAYER
  2
6
70
  0
62
  7
6
CONTINUOUS
  0
LAYER
  2
7
70
  0
62
  7
6
CONTINUOUS
  0
LAYER
  2
8
70
  0
62
  7
6
CONTINUOUS
  0
LAYER
  2
9
70
  0
62
  7
6
CONTINUOUS
  0
LAYER
  2
10
70
  0
62
  7
6
CONTINUOUS
  0
LAYER
  2
11
70
  0
62
  7
6
CONTINUOUS
  0
LAYER
  2
12
70
  0
62
  7
6
CONTINUOUS
  0
LAYER
  2
13
70
  0
62
  7
6
CONTINUOUS
  0
LAYER
  2
14
70
  0
62
  7
6
CONTINUOUS
  0
LAYER
  2
15
70
  0
62
  7
6
CONTINUOUS
  0
LAYER
  2
16
70
  0
62
  7
6
CONTINUOUS
  0
LAYER
  2
17
70
  0
62
  7
6
CONTINUOUS
  0
LAYER
  2
18
70
  0
62
  7
6
CONTINUOUS
  0
LAYER
  2
19
70
  0
62
  7
6
CONTINUOUS
  0
LAYER
  2
HATCH
70
  0
62
  7
6
CONTINUOUS
  0
LAYER
  2
GUIDE1
70
  0
62
  4
6
DASHDOT
  0
LAYER
  2
GUIDE2
70
  0
62
  4
6
DASHDOT
  0
LAYER
  2
GUIDE3
70
  0
62
  4
6
DASHDOT
  0
LAYER
  2
GUIDE4
70
  0
62
  4
6
DASHDOT
  0
ENDTAB
  0
TABLE
  2
STYLE
 70
     1
  0
STYLE
  2
STANDARD
 70
    64
 40
0.000000
 41
1.000000
 50
0.000000
 71
     0
 42
3.000000
  3
TXT
  4

  0
STYLE
  2
KANJI
 70
    64
 40
0.000000
 41
1.000000
 50
0.000000
 71
     0
 42
3.000000
  3
TXT
  4
BIGFONT
  0
ENDTAB
  0
TABLE
  2
VIEW
 70
     0
  0
ENDTAB
  0
ENDSEC
  0
SECTION
  2
ENTITIES
  0
TEXT
  8
1
 10
222.680
 20
-57.503
 40
2.800
 41
0.700
  1
(53)
  7
KANJI
 50
0.000
 51
0.000
  0
LINE
  6
CONTINUOUS
  8
1
 10
252.162
 20
-21.778
 11
252.162
 21
-60.503
  0
LINE
  6
CONTINUOUS
  8
1
 10
201.039
 20
7.453
 11
201.039
 21
-60.503
  0
LINE
  6
CONTINUOUS
  8
1
 10
252.162
 20
-58.503
 11
201.039
 21
-58.503
  0
LINE
  6
CONTINUOUS
  8
1
 10
252.162
 20
-58.503
 11
248.298
 21
-59.538
  0
LINE
  6
CONTINUOUS
  8
1
 10
252.162
 20
-58.503
 11
248.298
 21
-57.467
  0
LINE
  6
CONTINUOUS
  8
1
 10
201.039
 20
-58.503
 11
204.903
 21
-57.467
  0
LINE
  6
CONTINUOUS
  8
1
 10
201.039
 20
-58.503
 11
204.903
 21
-59.538
  0
POINT
  8
1
 10
201.039
 20
8.453
  0
POINT
  8
1
 10
252.162
 20
-20.778
  0
POINT
  8
1
 10
252.162
 20
-58.503
  0
LINE
  6
CONTINUOUS
  8
1
 10
98.028
 20
2.000
 11
98.947
 21
2.919
  0
LINE
  6
CONTINUOUS
  8
1
 10
109.836
 20
13.808
 11
110.756
 21
14.728
  0
LINE
  6
CONTINUOUS
  8
1
 10
97.684
 20
2.363
 11
98.605
 21
3.284
  0
LINE
  6
CONTINUOUS
  8
1
 10
109.471
 20
14.150
 11
110.392
 21
15.071
  0
LINE
  6
CONTINUOUS
  8
1
 10
97.360
 20
2.746
 11
98.286
 21
3.672
  0
LINE
  6
CONTINUOUS
  8
1
 10
109.083
 20
14.469
 11
110.009
 21
15.395
  0
LINE
  6
CONTINUOUS
  8
1
 10
97.056
 20
3.149
 11
97.991
 21
4.084
  0
LINE
  6
CONTINUOUS
  8
1
 10
108.671
 20
14.765
 11
109.606
 21
15.699
  0
LINE
  6
CONTINUOUS
  8
1
 10
96.773
 20
3.573
 11
97.720
 21
4.520
  0
LINE
  6
CONTINUOUS
  8
1
 10
108.235
 20
15.036
 11
109.182
 21
15.983
  0
LINE
  6
CONTINUOUS
  8
1
 10
96.510
 20
4.018
 11
97.474
 21
4.982
  0
LINE
  6
CONTINUOUS
  8
1
 10
107.774
 20
15.281
 11
108.737
 21
16.245
  0
LINE
  6
CONTINUOUS
  8
1
 10
96.270
 20
4.485
 11
97.256
 21
5.471
  0
LINE
  6
CONTINUOUS
  8
1
 10
107.285
 20
15.499
 11
108.270
 21
16.485
  0
LINE
  6
CONTINUOUS
  8
1
 10
96.054
 20
4.976
 11
97.067
 21
5.989
  0
LINE
  6
CONTINUOUS
  8
1
 10
106.766
 20
15.688
 11
107.780
 21
16.702
  0
LINE
  6
CONTINUOUS
  8
1
 10
95.862
 20
5.491
 11
96.911
 21
6.540
  0
LINE
  6
CONTINUOUS
  8
1
 10
106.216
 20
15.845
 11
107.264
 21
16.893
  0
LINE
  6
CONTINUOUS
  8
1
 10
95.698
 20
6.034
 11
96.791
 21
7.128
  0
LINE
  6
CONTINUOUS
  8
1
 10
105.628
 20
15.964
 11
106.721
 21
17.057
  0
LINE
  6
CONTINUOUS
  8
1
 10
95.565
 20
6.608
 11
96.715
 21
7.759
  0
LINE
  6
CONTINUOUS
  8
1
 10
104.997
 20
16.040
 11
106.148
 21
17.191
  0
LINE
  6
CONTINUOUS
  8
1
 10
95.465
 20
7.215
 11
96.692
 21
8.442
  0
LINE
  6
CONTINUOUS
  8
1
 10
104.313
 20
16.063
 11
105.540
 21
17.290
  0
LINE
  6
CONTINUOUS
  8
1
 10
95.406
 20
7.863
 11
96.736
 21
9.194
  0
LINE
  6
CONTINUOUS
  8
1
 10
103.561
 20
16.019
 11
104.892
 21
17.350
  0
LINE
  6
CONTINUOUS
  8
1
 10
95.394
 20
8.558
 11
96.877
 21
10.041
  0
LINE
  6
CONTINUOUS
  8
1
 10
102.714
 20
15.879
 11
104.197
 21
17.362
  0
LINE
  6
CONTINUOUS
  8
1
 10
95.442
 20
9.313
 11
97.174
 21
11.045
  0
LINE
  6
CONTINUOUS
  8
1
 10
101.710
 20
15.582
 11
103.442
 21
17.313
  0
LINE
  6
CONTINUOUS
  8
1
 10
95.570
 20
10.149
 11
97.855
 21
12.434
  0
LINE
  6
CONTINUOUS
  8
1
 10
100.321
 20
14.900
 11
102.606
 21
17.185
  0
LINE
  6
CONTINUOUS
  8
1
 10
95.819
 20
11.105
 11
101.650
 21
16.936
  0
LINE
  6
CONTINUOUS
  8
1
 10
96.290
 20
12.282
 11
100.473
 21
16.466
  0
LINE
  6
CONTINUOUS
  8
1
 10
98.391
 20
1.656
 11
99.312
 21
2.577
  0
LINE
  6
CONTINUOUS
  8
1
 10
110.178
 20
13.443
 11
111.099
 21
14.364
  0
LINE
  6
CONTINUOUS
  8
1
 10
98.774
 20
1.332
 11
99.700
 21
2.258
  0
LINE
  6
CONTINUOUS
  8
1
 10
110.497
 20
13.055
 11
111.423
 21
13.981
  0
LINE
  6
CONTINUOUS
  8
1
 10
99.177
 20
1.028
 11
100.112
 21
1.963
  0
LINE
  6
CONTINUOUS
  8
1
 10
110.793
 20
12.643
 11
111.727
 21
13.578
  0
LINE
  6
CONTINUOUS
  8
1
 10
99.601
 20
0.745
 11
100.548
 21
1.692
  0
LINE
  6
CONTINUOUS
  8
1
 10
111.064
 20
12.207
 11
112.011
 21
13.154
  0
LINE
  6
CONTINUOUS
  8
1
 10
100.046
 20
0.482
 11
101.010
 21
1.446
  0
LINE
  6
CONTINUOUS
  8
1
 10
111.309
 20
11.746
 11
112.273
 21
12.709
  0
LINE
  6
CONTINUOUS
  8
1
 10
100.513
 20
0.242
 11
101.498
 21
1.228
  0
LINE
  6
CONTINUOUS
  8
1
 10
111.527
 20
11.257
 11
112.513
 21
12.242
  0
LINE
  6
CONTINUOUS
  8
1
 10
101.003
 20
0.026
 11
102.017
 21
1.039
  0
LINE
  6
CONTINUOUS
  8
1
 10
111.716
 20
10.739
 11
112.729
 21
11.752
  0
LINE
  6
CONTINUOUS
  8
1
 10
101.519
 20
-0.166
 11
102.568
 21
0.883
  0
LINE
  6
CONTINUOUS
  8
1
 10
111.872
 20
10.188
 11
112.921
 21
11.236
  0
LINE
  6
CONTINUOUS
  8
1
 10
102.062
 20
-0.330
 11
103.155
 21
0.764
  0
LINE
  6
CONTINUOUS
  8
1
 10
111.992
 20
9.600
 11
113.085
 21
10.693
  0
LINE
  6
CONTINUOUS
  8
1
 10
102.636
 20
-0.463
 11
103.786
 21
0.687
  0
LINE
  6
CONTINUOUS
  8
1
 10
112.068
 20
8.969
 11
113.219
 21
10.120
  0
LINE
  6
CONTINUOUS
  8
1
 10
103.243
 20
-0.563
 11
104.470
 21
0.664
  0
LINE
  6
CONTINUOUS
  8
1
 10
112.091
 20
8.285
 11
113.318
 21
9.512
  0
LINE
  6
CONTINUOUS
  8
1
 10
103.891
 20
-0.622
 11
105.222
 21
0.709
  0
LINE
  6
CONTINUOUS
  8
1
 10
112.047
 20
7.534
 11
113.378
 21
8.864
  0
LINE
  6
CONTINUOUS
  8
1
 10
104.586
 20
-0.634
 11
106.069
 21
0.849
  0
LINE
  6
CONTINUOUS
  8
1
 10
111.907
 20
6.686
 11
113.390
 21
8.169
  0
LINE
  6
CONTINUOUS
  8
1
 10
105.341
 20
-0.586
 11
107.073
 21
1.146
  0
LINE
  6
CONTINUOUS
  8
1
 10
111.610
 20
5.682
 11
113.341
 21
7.414
  0
LINE
  6
CONTINUOUS
  8
1
 10
106.177
 20
-0.457
 11
108.462
 21
1.828
  0
LINE
  6
CONTINUOUS
  8
1
 10
110.928
 20
4.293
 11
113.213
 21
6.578
  0
LINE
  6
CONTINUOUS
  8
1
 10
107.133
 20
-0.209
 11
112.964
 21
5.622
  0
LINE
  6
CONTINUOUS
  8
1
 10
108.310
 20
0.262
 11
112.494
 21
4.445
  0
LINE
  6
CONTINUOUS
  8
1
 10
98.947
 20
13.808
 11
100.467
 21
12.288
  0
LINE
  6
CONTINUOUS
  8
1
 10
108.316
 20
4.439
 11
109.836
 21
2.919
  0
LINE
  6
CONTINUOUS
  8
1
 10
99.312
 20
14.150
 11
100.837
 21
12.626
  0
LINE
  6
CONTINUOUS
  8
1
 10
108.654
 20
4.809
 11
110.178
 21
3.284
  0
LINE
  6
CONTINUOUS
  8
1
 10
99.700
 20
14.469
 11
101.238
 21
12.931
  0
LINE
  6
CONTINUOUS
  8
1
 10
108.959
 20
5.211
 11
110.497
 21
3.672
  0
LINE
  6
CONTINUOUS
  8
1
 10
100.112
 20
14.765
 11
101.674
 21
13.203
  0
LINE
  6
CONTINUOUS
  8
1
 10
109.231
 20
5.646
 11
110.793
 21
4.084
  0
LINE
  6
CONTINUOUS
  8
1
 10
100.548
 20
15.036
 11
102.145
 21
13.439
  0
LINE
  6
CONTINUOUS
  8
1
 10
109.467
 20
6.117
 11
111.064
 21
4.520
  0
LINE
  6
CONTINUOUS
  8
1
 10
101.010
 20
15.281
 11
102.656
 21
13.635
  0
LINE
  6
CONTINUOUS
  8
1
 10
109.663
 20
6.628
 11
111.309
 21
4.982
  0
LINE
  6
CONTINUOUS
  8
1
 10
101.498
 20
15.499
 11
103.211
 21
13.787
  0
LINE
  6
CONTINUOUS
  8
1
 10
109.815
 20
7.183
 11
111.527
 21
5.471
  0
LINE
  6
CONTINUOUS
  8
1
 10
102.017
 20
15.688
 11
103.821
 21
13.884
  0
LINE
  6
CONTINUOUS
  8
1
 10
109.912
 20
7.793
 11
111.716
 21
5.989
  0
LINE
  6
CONTINUOUS
  8
1
 10
102.568
 20
15.845
 11
104.500
 21
13.913
  0
LINE
  6
CONTINUOUS
  8
1
 10
109.941
 20
8.472
 11
111.872
 21
6.540
  0
LINE
  6
CONTINUOUS
  8
1
 10
103.155
 20
15.964
 11
105.277
 21
13.843
  0
LINE
  6
CONTINUOUS
  8
1
 10
109.871
 20
9.249
 11
111.992
 21
7.128
  0
LINE
  6
CONTINUOUS
  8
1
 10
103.786
 20
16.040
 11
106.224
 21
13.603
  0
LINE
  6
CONTINUOUS
  8
1
 10
109.630
 20
10.196
 11
112.068
 21
7.759
  0
LINE
  6
CONTINUOUS
  8
1
 10
104.470
 20
16.063
 11
107.755
 21
12.778
  0
LINE
  6
CONTINUOUS
  8
1
 10
108.806
 20
11.727
 11
112.091
 21
8.442
  0
LINE
  6
CONTINUOUS
  8
1
 10
105.222
 20
16.019
 11
112.047
 21
9.194
  0
LINE
  6
CONTINUOUS
  8
1
 10
106.069
 20
15.879
 11
111.907
 21
10.041
  0
LINE
  6
CONTINUOUS
  8
1
 10
107.073
 20
15.582
 11
111.610
 21
11.045
  0
LINE
  6
CONTINUOUS
  8
1
 10
108.462
 20
14.900
 11
110.928
 21
12.434
  0
LINE
  6
CONTINUOUS
  8
1
 10
98.605
 20
13.443
 11
100.130
 21
11.919
  0
LINE
  6
CONTINUOUS
  8
1
 10
107.947
 20
4.102
 11
109.471
 21
2.577
  0
LINE
  6
CONTINUOUS
  8
1
 10
98.286
 20
13.055
 11
99.824
 21
11.517
  0
LINE
  6
CONTINUOUS
  8
1
 10
107.545
 20
3.796
 11
109.083
 21
2.258
  0
LINE
  6
CONTINUOUS
  8
1
 10
97.991
 20
12.643
 11
99.553
 21
11.081
  0
LINE
  6
CONTINUOUS
  8
1
 10
107.109
 20
3.525
 11
108.671
 21
1.963
  0
LINE
  6
CONTINUOUS
  8
1
 10
97.720
 20
12.207
 11
99.317
 21
10.610
  0
LINE
  6
CONTINUOUS
  8
1
 10
106.638
 20
3.289
 11
108.235
 21
1.692
  0
LINE
  6
CONTINUOUS
  8
1
 10
97.474
 20
11.746
 11
99.120
 21
10.100
  0
LINE
  6
CONTINUOUS
  8
1
 10
106.128
 20
3.092
 11
107.774
 21
1.446
  0
LINE
  6
CONTINUOUS
  8
1
 10
97.256
 20
11.257
 11
98.969
 21
9.544
  0
LINE
  6
CONTINUOUS
  8
1
 10
105.572
 20
2.941
 11
107.285
 21
1.228
  0
LINE
  6
CONTINUOUS
  8
1
 10
97.067
 20
10.739
 11
98.871
 21
8.935
  0
LINE
  6
CONTINUOUS
  8
1
 10
104.962
 20
2.843
 11
106.766
 21
1.039
  0
LINE
  6
CONTINUOUS
  8
1
 10
96.911
 20
10.188
 11
98.843
 21
8.256
  0
LINE
  6
CONTINUOUS
  8
1
 10
104.284
 20
2.815
 11
106.216
 21
0.883
  0
LINE
  6
CONTINUOUS
  8
1
 10
96.791
 20
9.600
 11
98.913
 21
7.479
  0
LINE
  6
CONTINUOUS
  8
1
 10
103.507
 20
2.885
 11
105.628
 21
0.764
  0
LINE
  6
CONTINUOUS
  8
1
 10
96.715
 20
8.969
 11
99.153
 21
6.531
  0
LINE
  6
CONTINUOUS
  8
1
 10
102.559
 20
3.125
 11
104.997
 21
0.687
  0
LINE
  6
CONTINUOUS
  8
1
 10
96.692
 20
8.285
 11
99.977
 21
5.000
  0
LINE
  6
CONTINUOUS
  8
1
 10
101.028
 20
3.949
 11
104.313
 21
0.664
  0
LINE
  6
CONTINUOUS
  8
1
 10
96.736
 20
7.534
 11
103.561
 21
0.709
  0
LINE
  6
CONTINUOUS
  8
1
 10
96.877
 20
6.686
 11
102.714
 21
0.849
  0
LINE
  6
CONTINUOUS
  8
1
 10
97.174
 20
5.682
 11
101.710
 21
1.146
  0
LINE
  6
CONTINUOUS
  8
1
 10
97.855
 20
4.293
 11
100.321
 21
1.828
  0
LINE
  6
CONTINUOUS
  8
1
 10
103.904
 20
-4.672
 11
105.366
 21
-3.828
  0
LINE
  6
CONTINUOUS
  8
1
 10
103.804
 20
-4.499
 11
105.566
 21
-3.482
  0
LINE
  6
CONTINUOUS
  8
1
 10
103.704
 20
-4.326
 11
105.540
 21
-3.266
  0
LINE
  6
CONTINUOUS
  8
1
 10
103.604
 20
-4.152
 11
105.140
 21
-3.266
  0
LINE
  6
CONTINUOUS
  8
1
 10
103.504
 20
-3.979
 11
104.740
 21
-3.266
  0
LINE
  6
CONTINUOUS
  8
1
 10
103.404
 20
-3.806
 11
104.340
 21
-3.266
  0
LINE
  6
CONTINUOUS
  8
1
 10
103.304
 20
-3.633
 11
103.940
 21
-3.266
  0
LINE
  6
CONTINUOUS
  8
1
 10
103.204
 20
-3.460
 11
103.540
 21
-3.266
  0
LINE
  6
CONTINUOUS
  8
1
 10
103.104
 20
-3.286
 11
103.140
 21
-3.266
  0
LINE
  6
CONTINUOUS
  8
1
 10
104.004
 20
-4.845
 11
105.166
 21
-4.175
  0
LINE
  6
CONTINUOUS
  8
1
 10
104.104
 20
-5.018
 11
104.966
 21
-4.521
  0
LINE
  6
CONTINUOUS
  8
1
 10
104.204
 20
-5.192
 11
104.766
 21
-4.867
  0
LINE
  6
CONTINUOUS
  8
1
 10
104.304
 20
-5.365
 11
104.566
 21
-5.214
  0
LINE
  6
CONTINUOUS
  8
1
 10
103.093
 20
-3.266
 11
104.392
 21
-5.516
  0
LINE
  6
CONTINUOUS
  8
1
 10
104.392
 20
-5.516
 11
105.691
 21
-3.266
  0
LINE
  6
CONTINUOUS
  8
1
 10
105.691
 20
-3.266
 11
103.093
 21
-3.266
  0
LINE
  6
CONTINUOUS
  8
1
 10
91.190
 20
8.039
 11
92.877
 21
9.013
  0
LINE
  6
CONTINUOUS
  8
1
 10
90.990
 20
8.154
 11
92.877
 21
9.244
  0
LINE
  6
CONTINUOUS
  8
1
 10
90.790
 20
8.270
 11
92.877
 21
9.475
  0
LINE
  6
CONTINUOUS
  8
1
 10
91.390
 20
7.923
 11
92.877
 21
8.782
  0
LINE
  6
CONTINUOUS
  8
1
 10
91.590
 20
7.808
 11
92.877
 21
8.551
  0
LINE
  6
CONTINUOUS
  8
1
 10
91.790
 20
7.693
 11
92.877
 21
8.320
  0
LINE
  6
CONTINUOUS
  8
1
 10
91.990
 20
7.577
 11
92.877
 21
8.089
  0
LINE
  6
CONTINUOUS
  8
1
 10
92.190
 20
7.462
 11
92.877
 21
7.859
  0
LINE
  6
CONTINUOUS
  8
1
 10
92.390
 20
7.346
 11
92.877
 21
7.628
  0
LINE
  6
CONTINUOUS
  8
1
 10
92.590
 20
7.231
 11
92.877
 21
7.397
  0
LINE
  6
CONTINUOUS
  8
1
 10
92.790
 20
7.115
 11
92.877
 21
7.166
  0
LINE
  6
CONTINUOUS
  8
1
 10
92.877
 20
9.663
 11
90.627
 21
8.364
  0
LINE
  6
CONTINUOUS
  8
1
 10
90.627
 20
8.364
 11
92.877
 21
7.065
  0
LINE
  6
CONTINUOUS
  8
1
 10
92.877
 20
7.065
 11
92.877
 21
9.663
  0
LINE
  6
CONTINUOUS
  8
1
 10
103.417
 20
20.398
 11
104.879
 21
21.241
  0
LINE
  6
CONTINUOUS
  8
1
 10
103.617
 20
20.744
 11
104.779
 21
21.415
  0
LINE
  6
CONTINUOUS
  8
1
 10
103.817
 20
21.091
 11
104.679
 21
21.588
  0
LINE
  6
CONTINUOUS
  8
1
 10
104.017
 20
21.437
 11
104.579
 21
21.761
  0
LINE
  6
CONTINUOUS
  8
1
 10
104.217
 20
21.783
 11
104.479
 21
21.934
  0
LINE
  6
CONTINUOUS
  8
1
 10
103.217
 20
20.051
 11
104.979
 21
21.068
  0
LINE
  6
CONTINUOUS
  8
1
 10
103.243
 20
19.835
 11
105.079
 21
20.895
  0
LINE
  6
CONTINUOUS
  8
1
 10
103.643
 20
19.835
 11
105.179
 21
20.722
  0
LINE
  6
CONTINUOUS
  8
1
 10
104.043
 20
19.835
 11
105.279
 21
20.549
  0
LINE
  6
CONTINUOUS
  8
1
 10
104.443
 20
19.835
 11
105.379
 21
20.375
  0
LINE
  6
CONTINUOUS
  8
1
 10
104.843
 20
19.835
 11
105.479
 21
20.202
  0
LINE
  6
CONTINUOUS
  8
1
 10
105.243
 20
19.835
 11
105.579
 21
20.029
  0
LINE
  6
CONTINUOUS
  8
1
 10
105.643
 20
19.835
 11
105.679
 21
19.856
  0
LINE
  6
CONTINUOUS
  8
1
 10
105.691
 20
19.835
 11
104.392
 21
22.085
  0
LINE
  6
CONTINUOUS
  8
1
 10
104.392
 20
22.085
 11
103.093
 21
19.835
  0
LINE
  6
CONTINUOUS
  8
1
 10
103.093
 20
19.835
 11
105.691
 21
19.835
  0
LINE
  6
CONTINUOUS
  8
1
 10
115.752
 20
7.714
 11
117.439
 21
8.688
  0
LINE
  6
CONTINUOUS
  8
1
 10
115.752
 20
7.945
 11
117.239
 21
8.804
  0
LINE
  6
CONTINUOUS
  8
1
 10
115.752
 20
8.176
 11
117.039
 21
8.919
  0
LINE
  6
CONTINUOUS
  8
1
 10
115.752
 20
8.407
 11
116.839
 21
9.035
  0
LINE
  6
CONTINUOUS
  8
1
 10
115.752
 20
8.638
 11
116.639
 21
9.150
  0
LINE
  6
CONTINUOUS
  8
1
 10
115.752
 20
8.869
 11
116.439
 21
9.266
  0
LINE
  6
CONTINUOUS
  8
1
 10
115.752
 20
9.100
 11
116.239
 21
9.381
  0
LINE
  6
CONTINUOUS
  8
1
 10
115.752
 20
9.331
 11
116.039
 21
9.497
  0
LINE
  6
CONTINUOUS
  8
1
 10
115.752
 20
9.562
 11
115.839
 21
9.612
  0
LINE
  6
CONTINUOUS
  8
1
 10
115.752
 20
7.483
 11
117.639
 21
8.573
  0
LINE
  6
CONTINUOUS
  8
1
 10
115.752
 20
7.252
 11
117.839
 21
8.458
  0
LINE
  6
CONTINUOUS
  8
1
 10
115.752
 20
7.065
 11
118.002
 21
8.364
  0
LINE
  6
CONTINUOUS
  8
1
 10
118.002
 20
8.364
 11
115.752
 21
9.663
  0
LINE
  6
CONTINUOUS
  8
1
 10
115.752
 20
9.663
 11
115.752
 21
7.065
  0
LINE
  6
CONTINUOUS
  8
1
 10
202.052
 20
12.453
 11
202.052
 21
4.453
  0
ARC
  6
CONTINUOUS
  8
1
 10
202.052
 20
5.253
 40
0.800
 50
187.599
 51
270.000
  0
ARC
  6
CONTINUOUS
  8
1
 10
202.052
 20
11.653
 40
0.800
 50
90.000
 51
172.401
  0
ARC
  6
CONTINUOUS
  8
1
 10
226.039
 20
8.453
 40
25.000
 50
172.401
 51
187.599
  0
LINE
  6
CONTINUOUS
  8
1
 10
207.930
 20
4.953
 11
208.430
 21
4.953
  0
LINE
  6
CONTINUOUS
  8
1
 10
207.930
 20
11.953
 11
208.430
 21
11.953
  0
LINE
  6
CONTINUOUS
  8
1
 10
206.430
 20
4.953
 11
206.930
 21
4.953
  0
LINE
  6
CONTINUOUS
  8
1
 10
206.430
 20
11.953
 11
206.930
 21
11.953
  0
LINE
  6
CONTINUOUS
  8
1
 10
206.930
 20
12.453
 11
207.930
 21
12.453
  0
LINE
  6
CONTINUOUS
  8
1
 10
206.430
 20
12.453
 11
205.430
 21
12.453
  0
LINE
  6
CONTINUOUS
  8
1
 10
206.930
 20
4.420
 11
207.930
 21
4.420
  0
LINE
  6
CONTINUOUS
  8
1
 10
204.930
 20
4.453
 11
202.052
 21
4.453
  0
LINE
  6
CONTINUOUS
  8
1
 10
205.430
 20
4.953
 11
204.930
 21
4.953
  0
LINE
  6
CONTINUOUS
  8
1
 10
205.430
 20
11.953
 11
204.930
 21
11.953
  0
LINE
  6
CONTINUOUS
  8
1
 10
206.430
 20
4.453
 11
205.430
 21
4.453
  0
LINE
  6
CONTINUOUS
  8
1
 10
204.930
 20
12.453
 11
202.052
 21
12.453
  0
LINE
  6
CONTINUOUS
  8
1
 10
218.962
 20
11.067
 11
208.430
 21
12.453
  0
LINE
  6
CONTINUOUS
  8
1
 10
218.962
 20
5.840
 11
208.430
 21
4.453
  0
LINE
  6
CONTINUOUS
  8
1
 10
204.930
 20
12.453
 11
204.930
 21
4.453
  0
LINE
  6
CONTINUOUS
  8
1
 10
205.430
 20
12.453
 11
205.430
 21
4.420
  0
LINE
  6
CONTINUOUS
  8
1
 10
206.930
 20
12.453
 11
206.930
 21
4.420
  0
LINE
  6
CONTINUOUS
  8
1
 10
206.430
 20
12.453
 11
206.430
 21
4.420
  0
LINE
  6
CONTINUOUS
  8
1
 10
207.930
 20
12.453
 11
207.930
 21
4.420
  0
LINE
  6
CONTINUOUS
  8
1
 10
244.162
 20
43.639
 11
244.162
 21
32.703
  0
LINE
  6
CONTINUOUS
  8
1
 10
244.162
 20
32.703
 11
244.162
 21
-29.547
  0
CIRCLE
  6
DIVIDE
  8
1
 10
90.392
 20
22.364
 40
1.200
  0
ARC
  6
CONTINUOUS
  8
1
 10
85.934
 20
27.131
 40
1.440
 50
90.000
 51
180.000
  0
ARC
  6
CONTINUOUS
  8
1
 10
85.934
 20
27.131
 40
1.440
 50
90.000
 51
180.000
  0
LINE
  6
CONTINUOUS
  8
1
 10
84.494
 20
-9.984
 11
84.494
 21
27.131
  0
LINE
  6
CONTINUOUS
  8
1
 10
85.934
 20
28.571
 11
123.049
 21
28.571
  0
LINE
  6
CONTINUOUS
  8
1
 10
85.934
 20
28.571
 11
123.049
 21
28.571
  0
LINE
  6
CONTINUOUS
  8
1
 10
124.489
 20
-9.984
 11
124.489
 21
27.131
  0
LINE
  6
CONTINUOUS
  8
1
 10
85.934
 20
-11.424
 11
123.049
 21
-11.424
  0
ARC
  6
CONTINUOUS
  8
1
 10
85.934
 20
-9.984
 40
1.440
 50
180.000
 51
270.000
  0
ARC
  6
CONTINUOUS
  8
1
 10
123.049
 20
-9.984
 40
1.440
 50
270.000
 51
360.000
  0
ARC
  6
CONTINUOUS
  8
1
 10
123.049
 20
27.131
 40
1.440
 50
0.000
 51
90.000
  0
ARC
  6
CONTINUOUS
  8
1
 10
75.194
 20
-10.231
 40
1.800
 50
270.000
 51
360.000
  0
LINE
  6
CONTINUOUS
  8
1
 10
76.994
 20
-1.831
 11
76.994
 21
-10.231
  0
LINE
  6
CONTINUOUS
  8
1
 10
76.994
 20
10.169
 11
76.994
 21
1.769
  0
ARC
  6
CONTINUOUS
  8
1
 10
75.194
 20
1.769
 40
1.800
 50
270.000
 51
360.000
  0
ARC
  6
CONTINUOUS
  8
1
 10
75.194
 20
-1.831
 40
1.800
 50
0.000
 51
90.000
  0
LINE
  6
CONTINUOUS
  8
1
 10
75.194
 20
-0.031
 11
12.795
 21
-0.031
  0
LINE
  6
CONTINUOUS
  8
1
 10
75.194
 20
35.839
 11
12.795
 21
35.839
  0
LINE
  6
CONTINUOUS
  8
1
 10
75.194
 20
-12.031
 11
12.795
 21
-12.031
  0
LINE
  6
CONTINUOUS
  8
1
 10
75.194
 20
11.969
 11
12.795
 21
11.969
  0
ARC
  6
CONTINUOUS
  8
1
 10
12.795
 20
13.769
 40
1.800
 50
180.000
 51
270.000
  0
ARC
  6
CONTINUOUS
  8
1
 10
12.795
 20
34.039
 40
1.800
 50
90.000
 51
180.000
  0
LINE
  6
CONTINUOUS
  8
1
 10
10.995
 20
13.769
 11
10.995
 21
34.039
  0
LINE
  6
CONTINUOUS
  8
1
 10
-7.613
 20
75.864
 11
-7.613
 21
74.364
  0
LINE
  6
CONTINUOUS
  8
1
 10
-26.608
 20
75.864
 11
-26.608
 21
74.364
  0
LINE
  6
CONTINUOUS
  8
1
 10
-8.608
 20
75.864
 11
-7.613
 21
75.864
  0
LINE
  6
CONTINUOUS
  8
1
 10
-26.608
 20
75.864
 11
-25.609
 21
75.864
  0
ARC
  6
CONTINUOUS
  8
1
 10
-34.107
 20
-4.136
 40
1.000
 50
180.000
 51
270.000
  0
ARC
  6
CONTINUOUS
  8
1
 10
-22.607
 20
-4.136
 40
1.000
 50
270.000
 51
360.000
  0
ARC
  6
CONTINUOUS
  8
1
 10
-12.107
 20
-4.136
 40
1.000
 50
180.000
 51
270.000
  0
ARC
  6
CONTINUOUS
  8
1
 10
-0.607
 20
-4.136
 40
1.000
 50
270.000
 51
360.000
  0
ARC
  6
CONTINUOUS
  8
1
 10
-0.607
 20
2.864
 40
1.000
 50
0.000
 51
90.000
  0
ARC
  6
CONTINUOUS
  8
1
 10
-12.107
 20
2.864
 40
1.000
 50
90.000
 51
180.000
  0
ARC
  6
CONTINUOUS
  8
1
 10
-22.607
 20
2.864
 40
1.000
 50
0.000
 51
90.000
  0
ARC
  6
CONTINUOUS
  8
1
 10
-34.107
 20
2.864
 40
1.000
 50
90.000
 51
180.000
  0
LINE
  6
CONTINUOUS
  8
1
 10
0.393
 20
-4.136
 11
0.393
 21
2.864
  0
LINE
  6
CONTINUOUS
  8
1
 10
-13.107
 20
-4.136
 11
-13.107
 21
2.864
  0
LINE
  6
CONTINUOUS
  8
1
 10
-12.107
 20
3.864
 11
-0.607
 21
3.864
  0
LINE
  6
CONTINUOUS
  8
1
 10
-0.607
 20
-5.136
 11
-12.107
 21
-5.136
  0
LINE
  6
CONTINUOUS
  8
1
 10
-21.607
 20
-4.136
 11
-21.607
 21
2.864
  0
LINE
  6
CONTINUOUS
  8
1
 10
-35.107
 20
-4.136
 11
-35.107
 21
2.864
  0
LINE
  6
CONTINUOUS
  8
1
 10
-22.607
 20
3.864
 11
-34.107
 21
3.864
  0
LINE
  6
CONTINUOUS
  8
1
 10
-22.607
 20
-5.136
 11
-34.107
 21
-5.136
  0
ARC
  6
CONTINUOUS
  8
1
 10
-34.107
 20
14.864
 40
1.000
 50
180.000
 51
270.000
  0
ARC
  6
CONTINUOUS
  8
1
 10
-22.607
 20
14.864
 40
1.000
 50
270.000
 51
360.000
  0
ARC
  6
CONTINUOUS
  8
1
 10
-12.107
 20
14.864
 40
1.000
 50
180.000
 51
270.000
  0
ARC
  6
CONTINUOUS
  8
1
 10
-0.607
 20
14.864
 40
1.000
 50
270.000
 51
360.000
  0
ARC
  6
CONTINUOUS
  8
1
 10
-0.607
 20
21.864
 40
1.000
 50
0.000
 51
90.000
  0
ARC
  6
CONTINUOUS
  8
1
 10
-12.107
 20
21.864
 40
1.000
 50
90.000
 51
180.000
  0
ARC
  6
CONTINUOUS
  8
1
 10
-22.607
 20
21.864
 40
1.000
 50
0.000
 51
90.000
  0
ARC
  6
CONTINUOUS
  8
1
 10
-34.107
 20
21.864
 40
1.000
 50
90.000
 51
180.000
  0
LINE
  6
CONTINUOUS
  8
1
 10
-21.607
 20
14.864
 11
-21.607
 21
21.864
  0
LINE
  6
CONTINUOUS
  8
1
 10
-35.107
 20
14.864
 11
-35.107
 21
21.864
  0
LINE
  6
CONTINUOUS
  8
1
 10
-34.107
 20
22.864
 11
-22.607
 21
22.864
  0
LINE
  6
CONTINUOUS
  8
1
 10
-22.607
 20
13.864
 11
-34.107
 21
13.864
  0
LINE
  6
CONTINUOUS
  8
1
 10
0.393
 20
14.864
 11
0.393
 21
21.864
  0
LINE
  6
CONTINUOUS
  8
1
 10
-13.107
 20
14.864
 11
-13.107
 21
21.864
  0
LINE
  6
CONTINUOUS
  8
1
 10
-12.107
 20
22.864
 11
-0.607
 21
22.864
  0
LINE
  6
CONTINUOUS
  8
1
 10
-0.607
 20
13.864
 11
-12.107
 21
13.864
  0
LINE
  6
CONTINUOUS
  8
1
 10
244.162
 20
100.363
 11
244.162
 21
-31.637
  0
LINE
  6
CONTINUOUS
  8
1
 10
244.158
 20
43.633
 11
244.158
 21
32.699
  0
LINE
  6
CONTINUOUS
  8
1
 10
219.158
 20
99.363
 11
219.158
 21
-30.637
  0
ARC
  6
CONTINUOUS
  8
1
 10
-0.507
 20
44.964
 40
0.900
 50
0.000
 51
90.000
  0
ARC
  6
CONTINUOUS
  8
1
 10
72.992
 20
46.964
 40
0.900
 50
0.000
 51
90.000
  0
LINE
  6
CONTINUOUS
  8
1
 10
-63.608
 20
100.363
 11
154.391
 21
100.363
  0
LINE
  6
CONTINUOUS
  8
1
 10
-38.108
 20
89.363
 11
128.892
 21
89.363
  0
LINE
  6
CONTINUOUS
  8
1
 10
-64.608
 20
99.363
 11
-64.608
 21
-30.547
  0
LINE
  6
CONTINUOUS
  8
1
 10
-41.108
 20
86.363
 11
-41.108
 21
-17.637
  0
ARC
  6
CONTINUOUS
  8
1
 10
36.992
 20
46.964
 40
0.900
 50
0.000
 51
90.000
  0
ARC
  6
CONTINUOUS
  8
1
 10
36.992
 20
39.764
 40
0.900
 50
270.000
 51
360.000
  0
ARC
  6
CONTINUOUS
  8
1
 10
29.792
 20
39.764
 40
0.900
 50
180.000
 51
270.000
  0
ARC
  6
CONTINUOUS
  8
1
 10
29.792
 20
46.964
 40
0.900
 50
90.000
 51
180.000
  0
LINE
  6
CONTINUOUS
  8
1
 10
36.992
 20
38.864
 11
29.792
 21
38.864
  0
LINE
  6
CONTINUOUS
  8
1
 10
36.992
 20
47.864
 11
29.792
 21
47.864
  0
LINE
  6
CONTINUOUS
  8
1
 10
37.892
 20
39.764
 11
37.892
 21
46.964
  0
LINE
  6
CONTINUOUS
  8
1
 10
28.892
 20
46.964
 11
28.892
 21
39.764
  0
ARC
  6
CONTINUOUS
  8
1
 10
54.992
 20
46.964
 40
0.900
 50
0.000
 51
90.000
  0
ARC
  6
CONTINUOUS
  8
1
 10
54.992
 20
39.764
 40
0.900
 50
270.000
 51
360.000
  0
ARC
  6
CONTINUOUS
  8
1
 10
47.792
 20
39.764
 40
0.900
 50
180.000
 51
270.000
  0
ARC
  6
CONTINUOUS
  8
1
 10
47.792
 20
46.964
 40
0.900
 50
90.000
 51
180.000
  0
LINE
  6
CONTINUOUS
  8
1
 10
54.992
 20
38.864
 11
47.792
 21
38.864
  0
LINE
  6
CONTINUOUS
  8
1
 10
54.992
 20
47.864
 11
47.792
 21
47.864
  0
LINE
  6
CONTINUOUS
  8
1
 10
55.892
 20
39.764
 11
55.892
 21
46.964
  0
LINE
  6
CONTINUOUS
  8
1
 10
46.892
 20
46.964
 11
46.892
 21
39.764
  0
ARC
  6
CONTINUOUS
  8
1
 10
72.992
 20
46.964
 40
0.900
 50
0.000
 51
90.000
  0
ARC
  6
CONTINUOUS
  8
1
 10
72.992
 20
39.764
 40
0.900
 50
270.000
 51
360.000
  0
ARC
  6
CONTINUOUS
  8
1
 10
65.792
 20
39.764
 40
0.900
 50
180.000
 51
270.000
  0
ARC
  6
CONTINUOUS
  8
1
 10
65.792
 20
46.964
 40
0.900
 50
90.000
 51
180.000
  0
LINE
  6
CONTINUOUS
  8
1
 10
72.992
 20
38.864
 11
65.792
 21
38.864
  0
LINE
  6
CONTINUOUS
  8
1
 10
72.992
 20
47.864
 11
65.792
 21
47.864
  0
LINE
  6
CONTINUOUS
  8
1
 10
73.892
 20
39.764
 11
73.892
 21
46.964
  0
LINE
  6
CONTINUOUS
  8
1
 10
64.892
 20
46.964
 11
64.892
 21
39.764
  0
ARC
  6
CONTINUOUS
  8
1
 10
75.194
 20
13.769
 40
1.800
 50
270.000
 51
360.000
  0
LINE
  6
CONTINUOUS
  8
1
 10
76.994
 20
13.769
 11
76.994
 21
34.511
  0
ARC
  6
CONTINUOUS
  8
1
 10
75.194
 20
10.169
 40
1.800
 50
0.000
 51
90.000
  0
ARC
  6
CONTINUOUS
  8
1
 10
75.194
 20
34.039
 40
1.800
 50
0.000
 51
90.000
  0
LINE
  6
CONTINUOUS
  8
1
 10
37.892
 20
-6.134
 11
28.892
 21
-6.134
  0
LINE
  6
CONTINUOUS
  8
1
 10
64.892
 20
5.873
 11
73.892
 21
5.873
  0
LINE
  6
CONTINUOUS
  8
1
 10
52.892
 20
5.873
 11
61.892
 21
5.873
  0
LINE
  6
CONTINUOUS
  8
1
 10
40.892
 20
5.873
 11
49.892
 21
5.873
  0
LINE
  6
CONTINUOUS
  8
1
 10
28.892
 20
5.873
 11
37.892
 21
5.873
  0
LINE
  6
CONTINUOUS
  8
1
 10
37.892
 20
17.863
 11
28.892
 21
17.863
  0
LINE
  6
CONTINUOUS
  8
1
 10
73.892
 20
17.863
 11
64.892
 21
17.863
  0
LINE
  6
CONTINUOUS
  8
1
 10
64.892
 20
29.863
 11
73.892
 21
29.863
  0
LINE
  6
CONTINUOUS
  8
1
 10
52.892
 20
29.863
 11
61.892
 21
29.863
  0
LINE
  6
CONTINUOUS
  8
1
 10
40.892
 20
29.863
 11
49.892
 21
29.863
  0
LINE
  6
CONTINUOUS
  8
1
 10
28.892
 20
29.863
 11
37.892
 21
29.863
  0
ARC
  6
CONTINUOUS
  8
1
 10
65.792
 20
26.263
 40
0.900
 50
180.000
 51
270.000
  0
ARC
  6
CONTINUOUS
  8
1
 10
72.992
 20
26.263
 40
0.900
 50
270.000
 51
360.000
  0
ARC
  6
CONTINUOUS
  8
1
 10
72.992
 20
33.463
 40
0.900
 50
0.000
 51
90.000
  0
ARC
  6
CONTINUOUS
  8
1
 10
65.792
 20
33.463
 40
0.900
 50
90.000
 51
180.000
  0
ARC
  6
CONTINUOUS
  8
1
 10
53.792
 20
26.263
 40
0.900
 50
180.000
 51
270.000
  0
ARC
  6
CONTINUOUS
  8
1
 10
60.992
 20
26.263
 40
0.900
 50
270.000
 51
360.000
  0
ARC
  6
CONTINUOUS
  8
1
 10
60.992
 20
33.463
 40
0.900
 50
0.000
 51
90.000
  0
ARC
  6
CONTINUOUS
  8
1
 10
53.792
 20
33.463
 40
0.900
 50
90.000
 51
180.000
  0
ARC
  6
CONTINUOUS
  8
1
 10
41.792
 20
33.463
 40
0.900
 50
90.000
 51
180.000
  0
ARC
  6
CONTINUOUS
  8
1
 10
48.992
 20
26.263
 40
0.900
 50
270.000
 51
360.000
  0
ARC
  6
CONTINUOUS
  8
1
 10
48.992
 20
33.463
 40
0.900
 50
0.000
 51
90.000
  0
ARC
  6
CONTINUOUS
  8
1
 10
41.792
 20
26.263
 40
0.900
 50
180.000
 51
270.000
  0
ARC
  6
CONTINUOUS
  8
1
 10
29.792
 20
26.263
 40
0.900
 50
180.000
 51
270.000
  0
ARC
  6
CONTINUOUS
  8
1
 10
36.992
 20
26.263
 40
0.900
 50
270.000
 51
360.000
  0
ARC
  6
CONTINUOUS
  8
1
 10
36.992
 20
33.463
 40
0.900
 50
0.000
 51
90.000
  0
ARC
  6
CONTINUOUS
  8
1
 10
29.792
 20
33.463
 40
0.900
 50
90.000
 51
180.000
  0
ARC
  6
CONTINUOUS
  8
1
 10
65.792
 20
14.263
 40
0.900
 50
180.000
 51
270.000
  0
ARC
  6
CONTINUOUS
  8
1
 10
72.992
 20
14.263
 40
0.900
 50
270.000
 51
360.000
  0
ARC
  6
CONTINUOUS
  8
1
 10
72.992
 20
21.463
 40
0.900
 50
0.000
 51
90.000
  0
ARC
  6
CONTINUOUS
  8
1
 10
65.792
 20
21.463
 40
0.900
 50
90.000
 51
180.000
  0
ARC
  6
CONTINUOUS
  8
1
 10
53.792
 20
14.263
 40
0.900
 50
180.000
 51
270.000
  0
ARC
  6
CONTINUOUS
  8
1
 10
60.992
 20
14.263
 40
0.900
 50
270.000
 51
360.000
  0
ARC
  6
CONTINUOUS
  8
1
 10
60.992
 20
21.463
 40
0.900
 50
0.000
 51
90.000
  0
ARC
  6
CONTINUOUS
  8
1
 10
53.792
 20
21.463
 40
0.900
 50
90.000
 51
180.000
  0
ARC
  6
CONTINUOUS
  8
1
 10
41.792
 20
14.263
 40
0.900
 50
180.000
 51
270.000
  0
ARC
  6
CONTINUOUS
  8
1
 10
48.992
 20
14.263
 40
0.900
 50
270.000
 51
360.000
  0
ARC
  6
CONTINUOUS
  8
1
 10
48.992
 20
21.463
 40
0.900
 50
0.000
 51
90.000
  0
ARC
  6
CONTINUOUS
  8
1
 10
41.792
 20
21.463
 40
0.900
 50
90.000
 51
180.000
  0
ARC
  6
CONTINUOUS
  8
1
 10
29.792
 20
14.263
 40
0.900
 50
180.000
 51
270.000
  0
ARC
  6
CONTINUOUS
  8
1
 10
36.992
 20
14.263
 40
0.900
 50
270.000
 51
360.000
  0
ARC
  6
CONTINUOUS
  8
1
 10
36.992
 20
21.463
 40
0.900
 50
0.000
 51
90.000
  0
ARC
  6
CONTINUOUS
  8
1
 10
29.792
 20
21.463
 40
0.900
 50
90.000
 51
180.000
  0
ARC
  6
CONTINUOUS
  8
1
 10
65.792
 20
2.273
 40
0.900
 50
180.000
 51
270.000
  0
ARC
  6
CONTINUOUS
  8
1
 10
72.992
 20
2.273
 40
0.900
 50
270.000
 51
360.000
  0
ARC
  6
CONTINUOUS
  8
1
 10
72.992
 20
9.473
 40
0.900
 50
0.000
 51
90.000
  0
ARC
  6
CONTINUOUS
  8
1
 10
65.792
 20
9.473
 40
0.900
 50
90.000
 51
180.000
  0
ARC
  6
CONTINUOUS
  8
1
 10
53.792
 20
2.273
 40
0.900
 50
180.000
 51
270.000
  0
ARC
  6
CONTINUOUS
  8
1
 10
60.992
 20
2.273
 40
0.900
 50
270.000
 51
360.000
  0
ARC
  6
CONTINUOUS
  8
1
 10
60.992
 20
9.473
 40
0.900
 50
0.000
 51
90.000
  0
ARC
  6
CONTINUOUS
  8
1
 10
53.792
 20
9.473
 40
0.900
 50
90.000
 51
180.000
  0
ARC
  6
CONTINUOUS
  8
1
 10
41.792
 20
2.273
 40
0.900
 50
180.000
 51
270.000
  0
ARC
  6
CONTINUOUS
  8
1
 10
48.992
 20
2.273
 40
0.900
 50
270.000
 51
360.000
  0
ARC
  6
CONTINUOUS
  8
1
 10
48.992
 20
9.473
 40
0.900
 50
0.000
 51
90.000
  0
ARC
  6
CONTINUOUS
  8
1
 10
41.792
 20
9.473
 40
0.900
 50
90.000
 51
180.000
  0
ARC
  6
CONTINUOUS
  8
1
 10
29.792
 20
9.473
 40
0.900
 50
90.000
 51
180.000
  0
ARC
  6
CONTINUOUS
  8
1
 10
36.992
 20
9.473
 40
0.900
 50
0.000
 51
90.000
  0
ARC
  6
CONTINUOUS
  8
1
 10
36.992
 20
2.273
 40
0.900
 50
270.000
 51
360.000
  0
ARC
  6
CONTINUOUS
  8
1
 10
29.792
 20
2.273
 40
0.900
 50
180.000
 51
270.000
  0
ARC
  6
CONTINUOUS
  8
1
 10
65.792
 20
-2.527
 40
0.900
 50
90.000
 51
180.000
  0
ARC
  6
CONTINUOUS
  8
1
 10
72.992
 20
-2.527
 40
0.900
 50
0.000
 51
90.000
  0
ARC
  6
CONTINUOUS
  8
1
 10
72.992
 20
-9.741
 40
0.900
 50
270.000
 51
360.000
  0
ARC
  6
CONTINUOUS
  8
1
 10
65.792
 20
-9.741
 40
0.900
 50
180.000
 51
270.000
  0
ARC
  6
CONTINUOUS
  8
1
 10
53.792
 20
-9.741
 40
0.900
 50
180.000
 51
270.000
  0
ARC
  6
CONTINUOUS
  8
1
 10
60.992
 20
-9.741
 40
0.900
 50
270.000
 51
360.000
  0
ARC
  6
CONTINUOUS
  8
1
 10
60.992
 20
-2.527
 40
0.900
 50
0.000
 51
90.000
  0
ARC
  6
CONTINUOUS
  8
1
 10
53.792
 20
-2.527
 40
0.900
 50
90.000
 51
180.000
  0
ARC
  6
CONTINUOUS
  8
1
 10
41.792
 20
-9.741
 40
0.900
 50
180.000
 51
270.000
  0
ARC
  6
CONTINUOUS
  8
1
 10
48.992
 20
-9.741
 40
0.900
 50
270.000
 51
360.000
  0
ARC
  6
CONTINUOUS
  8
1
 10
48.992
 20
-2.527
 40
0.900
 50
0.000
 51
90.000
  0
ARC
  6
CONTINUOUS
  8
1
 10
41.792
 20
-2.527
 40
0.900
 50
90.000
 51
180.000
  0
ARC
  6
CONTINUOUS
  8
1
 10
36.992
 20
-2.527
 40
0.900
 50
0.000
 51
90.000
  0
ARC
  6
CONTINUOUS
  8
1
 10
36.992
 20
-9.741
 40
0.900
 50
270.000
 51
360.000
  0
ARC
  6
CONTINUOUS
  8
1
 10
29.792
 20
-9.741
 40
0.900
 50
180.000
 51
270.000
  0
ARC
  6
CONTINUOUS
  8
1
 10
29.792
 20
-2.527
 40
0.900
 50
90.000
 51
180.000
  0
LINE
  6
CONTINUOUS
  8
1
 10
61.892
 20
-2.527
 11
61.892
 21
-9.741
  0
LINE
  6
CONTINUOUS
  8
1
 10
61.892
 20
9.473
 11
61.892
 21
2.273
  0
LINE
  6
CONTINUOUS
  8
1
 10
72.992
 20
1.373
 11
65.792
 21
1.373
  0
LINE
  6
CONTINUOUS
  8
1
 10
60.992
 20
1.373
 11
53.792
 21
1.373
  0
LINE
  6
CONTINUOUS
  8
1
 10
64.892
 20
-2.527
 11
64.892
 21
-9.741
  0
LINE
  6
CONTINUOUS
  8
1
 10
64.892
 20
2.273
 11
64.892
 21
9.473
  0
LINE
  6
CONTINUOUS
  8
1
 10
72.992
 20
-1.627
 11
65.792
 21
-1.627
  0
LINE
  6
CONTINUOUS
  8
1
 10
53.792
 20
-1.627
 11
60.992
 21
-1.627
  0
LINE
  6
CONTINUOUS
  8
1
 10
52.892
 20
-9.741
 11
52.892
 21
-2.527
  0
LINE
  6
CONTINUOUS
  8
1
 10
52.892
 20
2.273
 11
52.892
 21
9.473
  0
LINE
  6
CONTINUOUS
  8
1
 10
41.792
 20
-1.627
 11
48.992
 21
-1.627
  0
LINE
  6
CONTINUOUS
  8
1
 10
48.992
 20
1.373
 11
41.792
 21
1.373
  0
LINE
  6
CONTINUOUS
  8
1
 10
49.892
 20
-2.527
 11
49.892
 21
-9.741
  0
LINE
  6
CONTINUOUS
  8
1
 10
49.892
 20
9.473
 11
49.892
 21
2.273
  0
LINE
  6
CONTINUOUS
  8
1
 10
40.892
 20
-9.741
 11
40.892
 21
-2.527
  0
LINE
  6
CONTINUOUS
  8
1
 10
40.892
 20
2.273
 11
40.892
 21
9.473
  0
LINE
  6
CONTINUOUS
  8
1
 10
36.992
 20
-1.627
 11
29.792
 21
-1.627
  0
LINE
  6
CONTINUOUS
  8
1
 10
37.892
 20
-9.741
 11
37.892
 21
-2.527
  0
LINE
  6
CONTINUOUS
  8
1
 10
37.892
 20
2.273
 11
37.892
 21
9.473
  0
LINE
  6
CONTINUOUS
  8
1
 10
29.792
 20
1.373
 11
36.992
 21
1.373
  0
LINE
  6
CONTINUOUS
  8
1
 10
41.792
 20
10.373
 11
48.992
 21
10.373
  0
LINE
  6
CONTINUOUS
  8
1
 10
36.992
 20
10.373
 11
29.792
 21
10.373
  0
LINE
  6
CONTINUOUS
  8
1
 10
37.892
 20
21.463
 11
37.892
 21
14.263
  0
LINE
  6
CONTINUOUS
  8
1
 10
48.992
 20
13.363
 11
41.792
 21
13.363
  0
LINE
  6
CONTINUOUS
  8
1
 10
36.992
 20
13.363
 11
29.792
 21
13.363
  0
LINE
  6
CONTINUOUS
  8
1
 10
40.892
 20
14.263
 11
40.892
 21
21.463
  0
LINE
  6
CONTINUOUS
  8
1
 10
53.792
 20
10.373
 11
60.992
 21
10.373
  0
LINE
  6
CONTINUOUS
  8
1
 10
49.892
 20
21.463
 11
49.892
 21
14.263
  0
LINE
  6
CONTINUOUS
  8
1
 10
60.992
 20
13.363
 11
53.792
 21
13.363
  0
LINE
  6
CONTINUOUS
  8
1
 10
52.892
 20
14.263
 11
52.892
 21
21.463
  0
LINE
  6
CONTINUOUS
  8
1
 10
61.892
 20
21.463
 11
61.892
 21
14.263
  0
LINE
  6
CONTINUOUS
  8
1
 10
65.792
 20
10.373
 11
72.992
 21
10.373
  0
LINE
  6
CONTINUOUS
  8
1
 10
64.892
 20
14.263
 11
64.892
 21
21.463
  0
LINE
  6
CONTINUOUS
  8
1
 10
72.992
 20
13.363
 11
65.792
 21
13.363
  0
LINE
  6
CONTINUOUS
  8
1
 10
65.792
 20
22.363
 11
72.992
 21
22.363
  0
LINE
  6
CONTINUOUS
  8
1
 10
53.792
 20
22.363
 11
60.992
 21
22.363
  0
LINE
  6
CONTINUOUS
  8
1
 10
64.892
 20
26.263
 11
64.892
 21
33.463
  0
LINE
  6
CONTINUOUS
  8
1
 10
72.992
 20
25.363
 11
65.792
 21
25.363
  0
LINE
  6
CONTINUOUS
  8
1
 10
53.792
 20
25.363
 11
60.992
 21
25.363
  0
LINE
  6
CONTINUOUS
  8
1
 10
61.892
 20
33.463
 11
61.892
 21
26.263
  0
LINE
  6
CONTINUOUS
  8
1
 10
52.892
 20
33.463
 11
52.892
 21
26.263
  0
LINE
  6
CONTINUOUS
  8
1
 10
41.792
 20
22.363
 11
48.992
 21
22.363
  0
LINE
  6
CONTINUOUS
  8
1
 10
49.892
 20
26.263
 11
49.892
 21
33.463
  0
LINE
  6
CONTINUOUS
  8
1
 10
41.792
 20
25.363
 11
48.992
 21
25.363
  0
LINE
  6
CONTINUOUS
  8
1
 10
73.892
 20
21.463
 11
73.892
 21
14.263
  0
LINE
  6
CONTINUOUS
  8
1
 10
73.892
 20
33.463
 11
73.892
 21
26.263
  0
LINE
  6
CONTINUOUS
  8
1
 10
73.892
 20
9.473
 11
73.892
 21
2.273
  0
LINE
  6
CONTINUOUS
  8
1
 10
73.892
 20
-9.741
 11
73.892
 21
-2.527
  0
LINE
  6
CONTINUOUS
  8
1
 10
65.792
 20
-10.641
 11
72.992
 21
-10.641
  0
LINE
  6
CONTINUOUS
  8
1
 10
60.992
 20
-10.641
 11
53.792
 21
-10.641
  0
LINE
  6
CONTINUOUS
  8
1
 10
48.992
 20
-10.641
 11
41.792
 21
-10.641
  0
LINE
  6
CONTINUOUS
  8
1
 10
29.792
 20
-10.641
 11
36.992
 21
-10.641
  0
LINE
  6
CONTINUOUS
  8
1
 10
28.892
 20
-9.741
 11
28.892
 21
-2.527
  0
LINE
  6
CONTINUOUS
  8
1
 10
28.892
 20
9.473
 11
28.892
 21
2.273
  0
LINE
  6
CONTINUOUS
  8
1
 10
28.892
 20
14.263
 11
28.892
 21
21.463
  0
LINE
  6
CONTINUOUS
  8
1
 10
28.892
 20
26.263
 11
28.892
 21
33.463
  0
LINE
  6
CONTINUOUS
  8
1
 10
29.792
 20
22.363
 11
36.992
 21
22.363
  0
LINE
  6
CONTINUOUS
  8
1
 10
40.892
 20
33.463
 11
40.892
 21
26.263
  0
LINE
  6
CONTINUOUS
  8
1
 10
37.892
 20
33.463
 11
37.892
 21
26.263
  0
LINE
  6
CONTINUOUS
  8
1
 10
36.992
 20
25.363
 11
29.792
 21
25.363
  0
LINE
  6
CONTINUOUS
  8
1
 10
65.792
 20
34.363
 11
72.992
 21
34.363
  0
LINE
  6
CONTINUOUS
  8
1
 10
53.792
 20
34.363
 11
60.992
 21
34.363
  0
LINE
  6
CONTINUOUS
  8
1
 10
48.992
 20
34.363
 11
41.792
 21
34.363
  0
LINE
  6
CONTINUOUS
  8
1
 10
29.792
 20
34.363
 11
36.992
 21
34.363
  0
LINE
  6
CONTINUOUS
  8
1
 10
64.892
 20
-6.134
 11
73.892
 21
-6.134
  0
LINE
  6
CONTINUOUS
  8
1
 10
52.892
 20
-6.134
 11
61.892
 21
-6.134
  0
LINE
  6
CONTINUOUS
  8
1
 10
40.892
 20
-6.134
 11
49.892
 21
-6.134
  0
LINE
  6
CONTINUOUS
  8
1
 10
52.892
 20
17.863
 11
61.892
 21
17.863
  0
LINE
  6
CONTINUOUS
  8
1
 10
40.892
 20
17.863
 11
49.892
 21
17.863
  0
LINE
  6
CONTINUOUS
  8
1
 10
-4.368
 20
6.864
 11
-4.368
 21
4.864
  0
LINE
  6
CONTINUOUS
  8
1
 10
-29.396
 20
6.864
 11
-29.396
 21
4.864
  0
ARC
  6
CONTINUOUS
  8
1
 10
1.504
 20
-8.049
 40
2.000
 50
270.000
 51
360.000
  0
ARC
  6
CONTINUOUS
  8
1
 10
1.504
 20
29.388
 40
2.000
 50
0.000
 51
90.000
  0
LINE
  6
CONTINUOUS
  8
1
 10
1.504
 20
-10.049
 11
-36.116
 21
-10.049
  0
LINE
  6
CONTINUOUS
  8
1
 10
1.504
 20
31.388
 11
-36.116
 21
31.388
  0
LINE
  6
CONTINUOUS
  8
1
 10
3.504
 20
29.388
 11
3.504
 21
-8.049
  0
LINE
  6
CONTINUOUS
  8
1
 10
-4.368
 20
6.864
 11
-13.447
 21
6.864
  0
LINE
  6
CONTINUOUS
  8
1
 10
-21.016
 20
6.864
 11
-29.396
 21
6.864
  0
ARC
  6
CONTINUOUS
  8
1
 10
-22.507
 20
37.764
 40
0.900
 50
270.000
 51
360.000
  0
ARC
  6
CONTINUOUS
  8
1
 10
-22.507
 20
44.964
 40
0.900
 50
0.000
 51
90.000
  0
ARC
  6
CONTINUOUS
  8
1
 10
-34.207
 20
44.964
 40
0.900
 50
90.000
 51
180.000
  0
ARC
  6
CONTINUOUS
  8
1
 10
-34.207
 20
37.764
 40
0.900
 50
180.000
 51
270.000
  0
LINE
  6
CONTINUOUS
  8
1
 10
-34.207
 20
45.864
 11
-22.507
 21
45.864
  0
LINE
  6
CONTINUOUS
  8
1
 10
-22.507
 20
36.864
 11
-34.207
 21
36.864
  0
LINE
  6
CONTINUOUS
  8
1
 10
-21.607
 20
44.964
 11
-21.607
 21
37.764
  0
LINE
  6
CONTINUOUS
  8
1
 10
-35.107
 20
37.764
 11
-35.107
 21
44.964
  0
ARC
  6
CONTINUOUS
  8
1
 10
-0.507
 20
37.764
 40
0.900
 50
270.000
 51
360.000
  0
ARC
  6
CONTINUOUS
  8
1
 10
-0.507
 20
44.964
 40
0.900
 50
0.000
 51
90.000
  0
ARC
  6
CONTINUOUS
  8
1
 10
-12.207
 20
37.764
 40
0.900
 50
180.000
 51
270.000
  0
LINE
  6
CONTINUOUS
  8
1
 10
-0.507
 20
36.864
 11
-12.207
 21
36.864
  0
LINE
  6
CONTINUOUS
  8
1
 10
0.393
 20
44.964
 11
0.393
 21
37.764
  0
ARC
  6
CONTINUOUS
  8
1
 10
-12.207
 20
44.964
 40
0.900
 50
90.000
 51
180.000
  0
LINE
  6
CONTINUOUS
  8
1
 10
-12.207
 20
45.864
 11
-0.507
 21
45.864
  0
LINE
  6
CONTINUOUS
  8
1
 10
-13.107
 20
37.764
 11
-13.107
 21
44.964
  0
ARC
  6
CONTINUOUS
  8
1
 10
-36.116
 20
-8.249
 40
1.800
 50
180.000
 51
270.000
  0
LINE
  6
CONTINUOUS
  8
1
 10
-37.916
 20
-8.249
 11
-37.916
 21
29.588
  0
ARC
  6
CONTINUOUS
  8
1
 10
-36.116
 20
29.588
 40
1.800
 50
90.000
 51
180.000
  0
LINE
  6
CONTINUOUS
  8
1
 10
22.397
 20
72.864
 11
22.397
 21
72.852
  0
LINE
  6
CONTINUOUS
  8
1
 10
3.452
 20
72.864
 11
3.452
 21
72.852
  0
ARC
  6
CONTINUOUS
  8
1
 10
25.742
 20
64.764
 40
0.900
 50
270.000
 51
360.000
  0
ARC
  6
CONTINUOUS
  8
1
 10
25.742
 20
71.964
 40
0.900
 50
0.000
 51
90.000
  0
ARC
  6
CONTINUOUS
  8
1
 10
15.042
 20
71.964
 40
0.900
 50
90.000
 51
180.000
  0
ARC
  6
CONTINUOUS
  8
1
 10
15.042
 20
64.764
 40
0.900
 50
180.000
 51
270.000
  0
ARC
  6
CONTINUOUS
  8
1
 10
10.742
 20
64.764
 40
0.900
 50
270.000
 51
360.000
  0
ARC
  6
CONTINUOUS
  8
1
 10
10.742
 20
71.964
 40
0.900
 50
0.000
 51
90.000
  0
ARC
  6
CONTINUOUS
  8
1
 10
0.042
 20
71.964
 40
0.900
 50
90.000
 51
180.000
  0
ARC
  6
CONTINUOUS
  8
1
 10
0.042
 20
64.764
 40
0.900
 50
180.000
 51
270.000
  0
ARC
  6
CONTINUOUS
  8
1
 10
-4.258
 20
64.764
 40
0.900
 50
270.000
 51
360.000
  0
ARC
  6
CONTINUOUS
  8
1
 10
-4.258
 20
71.964
 40
0.900
 50
0.000
 51
90.000
  0
ARC
  6
CONTINUOUS
  8
1
 10
-14.958
 20
71.964
 40
0.900
 50
90.000
 51
180.000
  0
ARC
  6
CONTINUOUS
  8
1
 10
-14.958
 20
64.764
 40
0.900
 50
180.000
 51
270.000
  0
ARC
  6
CONTINUOUS
  8
1
 10
-19.258
 20
64.764
 40
0.900
 50
270.000
 51
360.000
  0
ARC
  6
CONTINUOUS
  8
1
 10
-19.258
 20
71.964
 40
0.900
 50
0.000
 51
90.000
  0
ARC
  6
CONTINUOUS
  8
1
 10
-29.958
 20
64.764
 40
0.900
 50
180.000
 51
270.000
  0
ARC
  6
CONTINUOUS
  8
1
 10
-29.958
 20
71.964
 40
0.900
 50
90.000
 51
180.000
  0
LINE
  6
CONTINUOUS
  8
1
 10
25.742
 20
63.864
 11
15.042
 21
63.864
  0
LINE
  6
CONTINUOUS
  8
1
 10
25.742
 20
72.864
 11
15.042
 21
72.864
  0
LINE
  6
CONTINUOUS
  8
1
 10
10.742
 20
63.864
 11
0.042
 21
63.864
  0
LINE
  6
CONTINUOUS
  8
1
 10
10.742
 20
72.864
 11
0.042
 21
72.864
  0
LINE
  6
CONTINUOUS
  8
1
 10
-4.258
 20
63.864
 11
-14.958
 21
63.864
  0
LINE
  6
CONTINUOUS
  8
1
 10
-4.258
 20
72.864
 11
-14.958
 21
72.864
  0
LINE
  6
CONTINUOUS
  8
1
 10
-19.258
 20
63.864
 11
-29.958
 21
63.864
  0
LINE
  6
CONTINUOUS
  8
1
 10
-19.258
 20
72.864
 11
-29.958
 21
72.864
  0
LINE
  6
CONTINUOUS
  8
1
 10
26.642
 20
71.964
 11
26.642
 21
64.764
  0
LINE
  6
CONTINUOUS
  8
1
 10
14.142
 20
64.764
 11
14.142
 21
71.964
  0
LINE
  6
CONTINUOUS
  8
1
 10
11.642
 20
71.964
 11
11.642
 21
64.764
  0
LINE
  6
CONTINUOUS
  8
1
 10
-0.858
 20
64.764
 11
-0.858
 21
71.964
  0
LINE
  6
CONTINUOUS
  8
1
 10
-3.358
 20
71.964
 11
-3.358
 21
64.764
  0
LINE
  6
CONTINUOUS
  8
1
 10
-15.858
 20
64.764
 11
-15.858
 21
71.964
  0
LINE
  6
CONTINUOUS
  8
1
 10
-18.358
 20
71.964
 11
-18.358
 21
64.764
  0
LINE
  6
CONTINUOUS
  8
1
 10
-30.858
 20
71.964
 11
-30.858
 21
64.764
  0
ARC
  6
CONTINUOUS
  8
1
 10
90.742
 20
64.764
 40
0.900
 50
270.000
 51
360.000
  0
ARC
  6
CONTINUOUS
  8
1
 10
90.742
 20
71.964
 40
0.900
 50
0.000
 51
90.000
  0
ARC
  6
CONTINUOUS
  8
1
 10
80.042
 20
71.964
 40
0.900
 50
90.000
 51
180.000
  0
ARC
  6
CONTINUOUS
  8
1
 10
80.042
 20
64.764
 40
0.900
 50
180.000
 51
270.000
  0
LINE
  6
CONTINUOUS
  8
1
 10
80.042
 20
72.864
 11
90.742
 21
72.864
  0
LINE
  6
CONTINUOUS
  8
1
 10
90.742
 20
63.864
 11
80.042
 21
63.864
  0
LINE
  6
CONTINUOUS
  8
1
 10
91.642
 20
71.964
 11
91.642
 21
64.764
  0
LINE
  6
CONTINUOUS
  8
1
 10
79.142
 20
64.764
 11
79.142
 21
71.964
  0
ARC
  6
CONTINUOUS
  8
1
 10
105.742
 20
64.764
 40
0.900
 50
270.000
 51
360.000
  0
ARC
  6
CONTINUOUS
  8
1
 10
105.742
 20
71.964
 40
0.900
 50
0.000
 51
90.000
  0
ARC
  6
CONTINUOUS
  8
1
 10
95.042
 20
71.964
 40
0.900
 50
90.000
 51
180.000
  0
ARC
  6
CONTINUOUS
  8
1
 10
95.042
 20
64.764
 40
0.900
 50
180.000
 51
270.000
  0
LINE
  6
CONTINUOUS
  8
1
 10
95.042
 20
72.864
 11
105.742
 21
72.864
  0
LINE
  6
CONTINUOUS
  8
1
 10
105.742
 20
63.864
 11
95.042
 21
63.864
  0
LINE
  6
CONTINUOUS
  8
1
 10
106.642
 20
71.964
 11
106.642
 21
64.764
  0
LINE
  6
CONTINUOUS
  8
1
 10
94.142
 20
64.764
 11
94.142
 21
71.964
  0
ARC
  6
CONTINUOUS
  8
1
 10
120.742
 20
64.764
 40
0.900
 50
270.000
 51
360.000
  0
ARC
  6
CONTINUOUS
  8
1
 10
120.742
 20
71.964
 40
0.900
 50
0.000
 51
90.000
  0
ARC
  6
CONTINUOUS
  8
1
 10
110.042
 20
71.964
 40
0.900
 50
90.000
 51
180.000
  0
ARC
  6
CONTINUOUS
  8
1
 10
110.042
 20
64.764
 40
0.900
 50
180.000
 51
270.000
  0
LINE
  6
CONTINUOUS
  8
1
 10
110.042
 20
72.864
 11
120.742
 21
72.864
  0
LINE
  6
CONTINUOUS
  8
1
 10
120.742
 20
63.864
 11
110.042
 21
63.864
  0
LINE
  6
CONTINUOUS
  8
1
 10
121.642
 20
71.964
 11
121.642
 21
64.764
  0
LINE
  6
CONTINUOUS
  8
1
 10
109.142
 20
64.764
 11
109.142
 21
71.964
  0
CIRCLE
  6
CONTINUOUS
  8
1
 10
90.392
 20
22.364
 40
1.200
  0
CIRCLE
  6
CONTINUOUS
  8
1
 10
55.202
 20
51.364
 40
1.500
  0
CIRCLE
  6
CONTINUOUS
  8
1
 10
47.582
 20
51.364
 40
1.500
  0
CIRCLE
  6
CONTINUOUS
  8
1
 10
37.202
 20
51.364
 40
1.500
  0
CIRCLE
  6
CONTINUOUS
  8
1
 10
29.582
 20
51.364
 40
1.500
  0
CIRCLE
  6
CONTINUOUS
  8
1
 10
33.392
 20
51.364
 40
1.500
  0
CIRCLE
  6
CONTINUOUS
  8
1
 10
69.392
 20
51.364
 40
1.500
  0
LINE
  6
CONTINUOUS
  8
1
 10
28.189
 20
35.829
 11
28.189
 21
35.763
  0
CIRCLE
  6
CONTINUOUS
  8
1
 10
-32.167
 20
49.364
 40
1.500
  0
CIRCLE
  6
CONTINUOUS
  8
1
 10
-24.547
 20
49.364
 40
1.500
  0
CIRCLE
  6
CONTINUOUS
  8
1
 10
-28.363
 20
49.364
 40
1.500
  0
CIRCLE
  6
CONTINUOUS
  8
1
 10
104.392
 20
8.364
 40
4.000
  0
CIRCLE
  6
CONTINUOUS
  8
1
 10
104.392
 20
8.364
 40
5.550
  0
CIRCLE
  6
CONTINUOUS
  8
1
 10
104.392
 20
8.364
 40
7.700
  0
CIRCLE
  6
CONTINUOUS
  8
1
 10
104.392
 20
8.364
 40
11.000
  0
ARC
  6
CONTINUOUS
  8
1
 10
220.158
 20
-30.637
 40
1.000
 50
180.000
 51
270.000
  0
ARC
  6
CONTINUOUS
  8
1
 10
220.158
 20
99.363
 40
1.000
 50
90.000
 51
180.000
  0
LINE
  6
CONTINUOUS
  8
1
 10
220.158
 20
-31.637
 11
244.158
 21
-31.637
  0
LINE
  6
CONTINUOUS
  8
1
 10
244.692
 20
100.363
 11
220.158
 21
100.363
  0
ARC
  6
CONTINUOUS
  8
1
 10
236.442
 20
110.590
 40
2.333
 50
41.410
 51
138.590
  0
ARC
  6
CONTINUOUS
  8
1
 10
232.942
 20
113.676
 40
2.333
 50
221.410
 51
318.590
  0
LINE
  6
CONTINUOUS
  8
1
 10
231.192
 20
103.363
 11
231.192
 21
112.133
  0
LINE
  6
CONTINUOUS
  8
1
 10
238.192
 20
103.363
 11
238.192
 21
112.133
  0
ARC
  6
CONTINUOUS
  8
1
 10
241.692
 20
100.363
 40
3.000
 50
0.000
 51
90.000
  0
ARC
  6
CONTINUOUS
  8
1
 10
227.692
 20
100.363
 40
3.000
 50
90.000
 51
180.000
  0
LINE
  6
CONTINUOUS
  8
1
 10
227.692
 20
103.363
 11
241.692
 21
103.363
  0
LINE
  6
CONTINUOUS
  8
1
 10
41.892
 20
103.363
 11
41.892
 21
108.990
  0
LINE
  6
CONTINUOUS
  8
1
 10
48.892
 20
103.363
 11
48.892
 21
109.090
  0
LINE
  6
CONTINUOUS
  8
1
 10
33.892
 20
100.363
 11
56.892
 21
100.363
  0
ARC
  6
CONTINUOUS
  8
1
 10
53.892
 20
100.363
 40
3.000
 50
0.000
 51
90.000
  0
ARC
  6
CONTINUOUS
  8
1
 10
36.892
 20
100.363
 40
3.000
 50
90.000
 51
180.000
  0
LINE
  6
CONTINUOUS
  8
1
 10
36.892
 20
103.363
 11
53.892
 21
103.363
  0
LINE
  6
CONTINUOUS
  8
1
 10
-38.108
 20
-20.637
 11
128.892
 21
-20.637
  0
LINE
  6
CONTINUOUS
  8
1
 10
154.391
 20
-31.637
 11
-63.608
 21
-31.637
  0
ARC
  6
CONTINUOUS
  8
1
 10
-38.108
 20
-17.637
 40
3.000
 50
180.000
 51
270.000
  0
ARC
  6
CONTINUOUS
  8
1
 10
-38.108
 20
86.363
 40
3.000
 50
90.000
 51
180.000
  0
ARC
  6
CONTINUOUS
  8
1
 10
-63.608
 20
99.363
 40
1.000
 50
90.000
 51
180.000
  0
ARC
  6
CONTINUOUS
  8
1
 10
128.892
 20
-17.637
 40
3.000
 50
270.000
 51
360.000
  0
ARC
  6
CONTINUOUS
  8
1
 10
128.892
 20
86.363
 40
3.000
 50
0.000
 51
90.000
  0
LINE
  6
CONTINUOUS
  8
1
 10
131.892
 20
86.363
 11
131.892
 21
-17.637
  0
ARC
  6
CONTINUOUS
  8
1
 10
154.391
 20
-30.637
 40
1.000
 50
270.000
 51
360.000
  0
ARC
  6
CONTINUOUS
  8
1
 10
154.391
 20
99.363
 40
1.000
 50
0.000
 51
90.000
  0
LINE
  6
CONTINUOUS
  8
1
 10
155.391
 20
99.363
 11
155.391
 21
-30.637
  0
ARC
  6
CONTINUOUS
  8
1
 10
-63.605
 20
-30.547
 40
1.000
 50
180.000
 51
270.000
  0
LINE
  6
CONTINUOUS
  8
1
 10
218.962
 20
14.953
 11
218.962
 21
1.953
  0
LINE
  6
CONTINUOUS
  8
1
 10
219.158
 20
15.425
 11
218.962
 21
14.953
  0
LINE
  6
CONTINUOUS
  8
1
 10
218.962
 20
1.953
 11
219.158
 21
1.482
  0
ARC
  6
DIVIDE
  8
1
 10
283.538
 20
102.953
 40
2.500
 50
285.121
 51
465.121
  0
LINE
  6
DIVIDE
  8
1
 10
244.162
 20
94.903
 11
282.886
 21
105.367
  0
LINE
  6
DIVIDE
  8
1
 10
284.190
 20
100.540
 11
244.162
 21
84.505
  0
LINE
  6
CONTINUOUS
  8
1
 10
-39.025
 20
123.990
 11
-37.557
 21
123.990
  0
ARC
  6
CONTINUOUS
  8
1
 10
-37.557
 20
125.290
 40
1.300
 50
270.000
 51
360.000
  0
LINE
  6
CONTINUOUS
  8
1
 10
-73.757
 20
125.690
 11
-73.757
 21
139.290
  0
LINE
  6
CONTINUOUS
  8
1
 10
-39.025
 20
140.990
 11
-37.557
 21
140.990
  0
LINE
  6
CONTINUOUS
  8
1
 10
-64.732
 20
124.690
 11
-46.202
 21
124.690
  0
LINE
  6
CONTINUOUS
  8
1
 10
-46.202
 20
124.690
 11
-39.025
 21
123.990
  0
LINE
  6
CONTINUOUS
  8
1
 10
-36.257
 20
139.690
 11
-36.257
 21
125.290
  0
LINE
  6
CONTINUOUS
  8
1
 10
-64.757
 20
124.690
 11
-64.757
 21
140.290
  0
LINE
  6
CONTINUOUS
  8
1
 10
-73.757
 20
125.690
 11
-64.757
 21
125.690
  0
LINE
  6
CONTINUOUS
  8
1
 10
-46.202
 20
140.290
 11
-46.202
 21
124.690
  0
LINE
  6
CONTINUOUS
  8
1
 10
-39.025
 20
140.990
 11
-39.025
 21
123.990
  0
LINE
  6
CONTINUOUS
  8
1
 10
-35.257
 20
127.390
 11
-36.257
 21
127.390
  0
LINE
  6
CONTINUOUS
  8
1
 10
-35.257
 20
137.590
 11
-35.257
 21
127.390
  0
LINE
  6
CONTINUOUS
  8
1
 10
-35.257
 20
127.390
 11
-16.257
 21
128.390
  0
ARC
  6
CONTINUOUS
  8
1
 10
-37.557
 20
139.690
 40
1.300
 50
0.000
 51
90.000
  0
LINE
  6
CONTINUOUS
  8
1
 10
-73.757
 20
139.290
 11
-64.757
 21
139.290
  0
LINE
  6
CONTINUOUS
  8
1
 10
-64.757
 20
140.290
 11
-46.202
 21
140.290
  0
LINE
  6
CONTINUOUS
  8
1
 10
-15.257
 20
128.390
 11
-15.257
 21
136.590
  0
LINE
  6
CONTINUOUS
  8
1
 10
-16.257
 20
136.590
 11
-15.257
 21
136.590
  0
LINE
  6
CONTINUOUS
  8
1
 10
-16.257
 20
128.390
 11
-15.257
 21
128.390
  0
LINE
  6
CONTINUOUS
  8
1
 10
-36.257
 20
137.590
 11
-35.257
 21
137.590
  0
LINE
  6
CONTINUOUS
  8
1
 10
-16.257
 20
136.590
 11
-16.257
 21
128.390
  0
LINE
  6
CONTINUOUS
  8
1
 10
-35.257
 20
137.590
 11
-16.257
 21
136.590
  0
LINE
  6
CONTINUOUS
  8
1
 10
-46.202
 20
140.290
 11
-39.025
 21
140.990
  0
LINE
  6
CONTINUOUS
  8
1
 10
-15.257
 20
136.090
 11
6.626
 21
136.090
  0
LINE
  6
CONTINUOUS
  8
1
 10
-15.257
 20
128.990
 11
6.626
 21
128.990
  0
ARC
  6
CONTINUOUS
  8
1
 10
8.192
 20
134.315
 40
2.367
 50
131.410
 51
228.590
  0
ARC
  6
CONTINUOUS
  8
1
 10
5.061
 20
130.765
 40
2.367
 50
311.410
 51
408.590
  0
ARC
  6
CONTINUOUS
  8
1
 10
10.558
 20
134.315
 40
2.367
 50
131.410
 51
228.590
  0
ARC
  6
CONTINUOUS
  8
1
 10
7.427
 20
130.765
 40
2.367
 50
311.410
 51
408.590
  0
LINE
  6
CONTINUOUS
  8
1
 10
8.993
 20
136.090
 11
21.892
 21
136.090
  0
LINE
  6
CONTINUOUS
  8
1
 10
8.993
 20
128.990
 11
21.892
 21
128.990
  0
ARC
  6
CONTINUOUS
  8
1
 10
21.892
 20
108.990
 40
20.000
 50
0.000
 51
90.000
  0
ARC
  6
CONTINUOUS
  8
1
 10
21.892
 20
109.090
 40
27.000
 50
0.000
 51
90.000
  0
LINE
  6
CONTINUOUS
  8
1
 10
265.192
 20
57.798
 11
269.764
 21
59.223
  0
LINE
  6
CONTINUOUS
  8
1
 10
265.192
 20
57.798
 11
267.018
 21
61.584
  0
LINE
  6
CONTINUOUS
  8
1
 10
281.095
 20
86.959
 11
282.413
 21
82.241
  0
LINE
  6
CONTINUOUS
  8
1
 10
281.095
 20
86.959
 11
279.634
 21
82.912
  0
ARC
  6
CONTINUOUS
  8
1
 10
245.205
 20
87.615
 40
35.896
 50
303.836
 51
358.954
  0
POINT
  8
1
 10
243.162
 20
89.453
  0
ARC
  6
CONTINUOUS
  8
1
 10
245.662
 20
46.953
 40
2.500
 50
233.129
 51
360.000
  0
LINE
  6
CONTINUOUS
  8
1
 10
248.162
 20
59.453
 11
244.162
 21
59.453
  0
LINE
  6
CONTINUOUS
  8
1
 10
247.162
 20
94.453
 11
244.162
 21
94.453
  0
LINE
  6
CONTINUOUS
  8
1
 10
247.162
 20
92.453
 11
244.162
 21
92.453
  0
ARC
  6
CONTINUOUS
  8
1
 10
243.162
 20
89.453
 40
2.100
 50
298.436
 51
421.564
  0
ARC
  6
CONTINUOUS
  8
1
 10
243.162
 20
89.453
 40
1.650
 50
307.304
 51
412.696
  0
LINE
  6
CONTINUOUS
  8
1
 10
244.162
 20
-0.547
 11
247.162
 21
-0.547
  0
LINE
  6
CONTINUOUS
  8
1
 10
244.162
 20
-25.547
 11
247.162
 21
-25.547
  0
LINE
  6
CONTINUOUS
  8
1
 10
248.162
 20
93.453
 11
248.162
 21
46.953
  0
ARC
  6
CONTINUOUS
  8
1
 10
247.162
 20
93.453
 40
1.000
 50
0.000
 51
90.000
  0
LINE
  6
CONTINUOUS
  8
1
 10
248.162
 20
63.964
 11
252.162
 21
65.753
  0
LINE
  6
CONTINUOUS
  8
1
 10
248.162
 20
74.564
 11
252.162
 21
72.753
  0
LINE
  6
CONTINUOUS
  8
1
 10
247.162
 20
92.453
 11
248.162
 21
93.053
  0
LINE
  6
CONTINUOUS
  8
1
 10
252.162
 20
72.753
 11
252.162
 21
65.753
  0
ARC
  6
CONTINUOUS
  8
1
 10
251.662
 20
-20.778
 40
0.500
 50
295.000
 51
360.000
  0
LINE
  6
CONTINUOUS
  8
1
 10
248.162
 20
-22.962
 11
251.873
 21
-21.231
  0
ARC
  6
CONTINUOUS
  8
1
 10
251.662
 20
-14.315
 40
0.500
 50
0.000
 51
65.000
  0
LINE
  6
CONTINUOUS
  8
1
 10
248.162
 20
-12.131
 11
251.873
 21
-13.862
  0
LINE
  6
CONTINUOUS
  8
1
 10
252.162
 20
-14.315
 11
252.162
 21
-20.778
  0
ARC
  6
CONTINUOUS
  8
1
 10
247.162
 20
-24.547
 40
1.000
 50
270.000
 51
360.000
  0
ARC
  6
CONTINUOUS
  8
1
 10
247.162
 20
-1.547
 40
1.000
 50
0.000
 51
90.000
  0
LINE
  6
CONTINUOUS
  8
1
 10
248.162
 20
-1.547
 11
248.162
 21
-24.547
  0
TEXT
  8
1
 10
-84.953
 20
31.423
 40
2.800
 41
0.700
  1
132
  7
KANJI
 50
90.000
 51
0.000
  0
LINE
  6
CONTINUOUS
  8
1
 10
-64.608
 20
100.363
 11
-85.953
 21
100.363
  0
LINE
  6
CONTINUOUS
  8
1
 10
-64.608
 20
-31.637
 11
-85.953
 21
-31.637
  0
LINE
  6
CONTINUOUS
  8
1
 10
-83.953
 20
100.363
 11
-83.953
 21
-31.637
  0
LINE
  6
CONTINUOUS
  8
1
 10
-83.953
 20
100.363
 11
-82.918
 21
96.500
  0
LINE
  6
CONTINUOUS
  8
1
 10
-83.953
 20
100.363
 11
-84.988
 21
96.500
  0
LINE
  6
CONTINUOUS
  8
1
 10
-83.953
 20
-31.637
 11
-84.988
 21
-27.773
  0
LINE
  6
CONTINUOUS
  8
1
 10
-83.953
 20
-31.637
 11
-82.918
 21
-27.773
  0
POINT
  8
1
 10
-63.608
 20
-31.637
  0
POINT
  8
1
 10
-63.608
 20
100.363
  0
POINT
  8
1
 10
-83.953
 20
100.363
  0
TEXT
  8
1
 10
37.083
 20
-45.010
 40
2.800
 41
0.700
  1
220
  7
KANJI
 50
0.000
 51
0.000
  0
LINE
  6
CONTINUOUS
  8
1
 10
155.391
 20
-31.637
 11
155.391
 21
-48.010
  0
LINE
  6
CONTINUOUS
  8
1
 10
-64.608
 20
-31.547
 11
-64.608
 21
-48.010
  0
LINE
  6
CONTINUOUS
  8
1
 10
155.391
 20
-46.010
 11
-64.608
 21
-46.010
  0
LINE
  6
CONTINUOUS
  8
1
 10
155.391
 20
-46.010
 11
151.528
 21
-47.045
  0
LINE
  6
CONTINUOUS
  8
1
 10
155.391
 20
-46.010
 11
151.528
 21
-44.975
  0
LINE
  6
CONTINUOUS
  8
1
 10
-64.608
 20
-46.010
 11
-60.745
 21
-44.975
  0
LINE
  6
CONTINUOUS
  8
1
 10
-64.608
 20
-46.010
 11
-60.745
 21
-47.045
  0
POINT
  8
1
 10
-64.608
 20
-30.547
  0
POINT
  8
1
 10
155.391
 20
-30.637
  0
POINT
  8
1
 10
155.391
 20
-46.010
  0
TEXT
  8
1
 10
229.700
 20
-46.420
 40
2.800
 41
0.700
  1
25
  7
KANJI
 50
0.000
 51
0.000
  0
LINE
  6
CONTINUOUS
  8
1
 10
219.158
 20
-31.637
 11
219.158
 21
-49.420
  0
LINE
  6
CONTINUOUS
  8
1
 10
244.162
 20
-30.547
 11
244.162
 21
-49.420
  0
LINE
  6
CONTINUOUS
  8
1
 10
219.158
 20
-47.420
 11
244.162
 21
-47.420
  0
LINE
  6
CONTINUOUS
  8
1
 10
219.158
 20
-47.420
 11
223.022
 21
-46.384
  0
LINE
  6
CONTINUOUS
  8
1
 10
219.158
 20
-47.420
 11
223.022
 21
-48.455
  0
LINE
  6
CONTINUOUS
  8
1
 10
244.162
 20
-47.420
 11
240.298
 21
-48.455
  0
LINE
  6
CONTINUOUS
  8
1
 10
244.162
 20
-47.420
 11
240.298
 21
-46.384
  0
POINT
  8
1
 10
244.162
 20
-29.547
  0
POINT
  8
1
 10
219.158
 20
-30.637
  0
POINT
  8
1
 10
219.158
 20
-47.420
  0
ARC
  6
CONTINUOUS
  8
1
 10
247.779
 20
-45.020
 40
1.269
 50
118.072
 51
241.928
  0
ARC
  6
CONTINUOUS
  8
1
 10
248.544
 20
-45.020
 40
1.269
 50
298.072
 51
421.928
  0
TEXT
  8
1
 10
247.182
 20
-46.420
 40
2.800
 41
0.700
  1
8
  7
KANJI
 50
0.000
 51
0.000
  0
LINE
  6
CONTINUOUS
  8
1
 10
244.162
 20
-30.547
 11
244.162
 21
-49.420
  0
LINE
  6
CONTINUOUS
  8
1
 10
252.162
 20
-21.778
 11
252.162
 21
-49.420
  0
LINE
  6
CONTINUOUS
  8
1
 10
239.162
 20
-47.420
 11
257.162
 21
-47.420
  0
LINE
  6
CONTINUOUS
  8
1
 10
244.162
 20
-47.420
 11
240.298
 21
-46.384
  0
LINE
  6
CONTINUOUS
  8
1
 10
244.162
 20
-47.420
 11
240.298
 21
-48.455
  0
LINE
  6
CONTINUOUS
  8
1
 10
252.162
 20
-47.420
 11
256.025
 21
-48.455
  0
LINE
  6
CONTINUOUS
  8
1
 10
252.162
 20
-47.420
 11
256.025
 21
-46.384
  0
POINT
  8
1
 10
252.162
 20
-20.778
  0
POINT
  8
1
 10
244.162
 20
-29.547
  0
POINT
  8
1
 10
244.162
 20
-47.420
  0
TEXT
  8
1
 10
-37.800
 20
80.576
 40
7.000
 41
0.507
  1
MITSUBISHI
  7
KANJI
 50
0.000
 51
0.000
  0
TEXT
  8
1
 10
78.385
 20
81.149
 40
4.000
 41
0.531
  1
REMOTE CONTROLLER  R-2450
  7
KANJI
 50
0.000
 51
0.000
  0
TEXT
  8
1
 10
92.472
 20
20.824
 40
3.000
 41
0.701
  1
ロック中
  7
KANJI
 50
0.000
 51
0.000
  0
TEXT
  8
1
 10
112.692
 20
68.764
 40
2.700
 41
0.910
  1
照明
  7
KANJI
 50
0.000
 51
0.000
  0
TEXT
  8
1
 10
111.342
 20
65.264
 40
2.700
 41
0.885
  1
ＯＦＦ
  7
KANJI
 50
0.000
 51
0.000
  0
TEXT
  8
1
 10
97.692
 20
68.764
 40
2.700
 41
0.910
  1
照明
  7
KANJI
 50
0.000
 51
0.000
  0
TEXT
  8
1
 10
97.692
 20
65.264
 40
2.700
 41
0.910
  1
ＯＮ
  7
KANJI
 50
0.000
 51
0.000
  0
TEXT
  8
1
 10
81.342
 20
67.014
 40
2.700
 41
0.885
  1
ワイパ
  7
KANJI
 50
0.000
 51
0.000
  0
TEXT
  8
1
 10
-28.928
 20
66.564
 40
3.600
 41
0.635
  1
MENU
  7
KANJI
 50
0.000
 51
0.000
  0
TEXT
  8
1
 10
-15.008
 20
66.564
 40
3.600
 41
0.628
  1
SHIFT
  7
KANJI
 50
0.000
 51
0.000
  0
TEXT
  8
1
 10
-0.548
 20
66.564
 40
3.600
 41
0.747
  1
↑/ON
  7
KANJI
 50
0.000
 51
0.000
  0
TEXT
  8
1
 10
13.372
 20
66.564
 40
3.600
 41
0.719
  1
↓/OFF
  7
KANJI
 50
0.000
 51
0.000
  0
TEXT
  8
1
 10
-20.916
 20
24.864
 40
3.000
 41
0.713
  1
ズーム
  7
KANJI
 50
0.000
 51
0.000
  0
TEXT
  8
1
 10
-10.039
 20
42.081
 40
1.800
 41
0.879
  1
オートパン
  7
KANJI
 50
0.000
 51
0.000
  0
TEXT
  8
1
 10
-33.763
 20
40.014
 40
2.700
 41
0.872
  1
回転速度
  7
KANJI
 50
0.000
 51
0.000
  0
TEXT
  8
1
 10
-23.317
 20
8.364
 40
3.000
 41
0.694
  1
フォーカス
  7
KANJI
 50
0.000
 51
0.000
  0
TEXT
  8
1
 10
-8.157
 20
38.580
 40
1.800
 41
0.949
  1
ＯＮ
  7
KANJI
 50
0.000
 51
0.000
  0
TEXT
  8
1
 10
-25.897
 20
51.864
 40
2.700
 41
0.988
  1
速
  7
KANJI
 50
0.000
 51
0.000
  0
TEXT
  8
1
 10
-33.517
 20
51.864
 40
2.700
 41
0.988
  1
遅
  7
KANJI
 50
0.000
 51
0.000
  0
TEXT
  8
1
 10
-19.717
 20
5.147
 40
3.000
 41
0.736
  1
ＡＦ
  7
KANJI
 50
0.000
 51
0.000
  0
TEXT
  8
1
 10
66.392
 20
-5.670
 40
3.000
 41
0.903
  1
１６
  7
KANJI
 50
0.000
 51
0.000
  0
TEXT
  8
1
 10
54.392
 20
-5.670
 40
3.000
 41
0.903
  1
１５
  7
KANJI
 50
0.000
 51
0.000
  0
TEXT
  8
1
 10
42.392
 20
-5.670
 40
3.000
 41
0.903
  1
１４
  7
KANJI
 50
0.000
 51
0.000
  0
TEXT
  8
1
 10
30.392
 20
-5.670
 40
3.000
 41
0.903
  1
１３
  7
KANJI
 50
0.000
 51
0.000
  0
TEXT
  8
1
 10
42.392
 20
6.344
 40
3.000
 41
0.903
  1
１０
  7
KANJI
 50
0.000
 51
0.000
  0
TEXT
  8
1
 10
54.392
 20
6.344
 40
3.000
 41
0.903
  1
１１
  7
KANJI
 50
0.000
 51
0.000
  0
TEXT
  8
1
 10
66.392
 20
6.344
 40
3.000
 41
0.903
  1
１２
  7
KANJI
 50
0.000
 51
0.000
  0
TEXT
  8
1
 10
31.892
 20
6.243
 40
3.000
 41
0.972
  1
９
  7
KANJI
 50
0.000
 51
0.000
  0
TEXT
  8
1
 10
31.892
 20
18.233
 40
3.000
 41
0.972
  1
５
  7
KANJI
 50
0.000
 51
0.000
  0
TEXT
  8
1
 10
31.892
 20
30.233
 40
3.000
 41
0.972
  1
１
  7
KANJI
 50
0.000
 51
0.000
  0
TEXT
  8
1
 10
43.892
 20
30.233
 40
3.000
 41
0.972
  1
２
  7
KANJI
 50
0.000
 51
0.000
  0
TEXT
  8
1
 10
55.892
 20
30.233
 40
3.000
 41
0.972
  1
３
  7
KANJI
 50
0.000
 51
0.000
  0
TEXT
  8
1
 10
67.892
 20
30.233
 40
3.000
 41
0.972
  1
４
  7
KANJI
 50
0.000
 51
0.000
  0
TEXT
  8
1
 10
67.892
 20
18.233
 40
3.000
 41
0.972
  1
８
  7
KANJI
 50
0.000
 51
0.000
  0
TEXT
  8
1
 10
55.892
 20
18.233
 40
3.000
 41
0.972
  1
７
  7
KANJI
 50
0.000
 51
0.000
  0
TEXT
  8
1
 10
43.892
 20
18.233
 40
3.000
 41
0.972
  1
６
  7
KANJI
 50
0.000
 51
0.000
  0
TEXT
  8
1
 10
29.636
 20
26.315
 40
2.500
 41
0.889
  1
起動１
  7
KANJI
 50
0.000
 51
0.000
  0
TEXT
  8
1
 10
29.636
 20
14.315
 40
2.500
 41
0.889
  1
起動５
  7
KANJI
 50
0.000
 51
0.000
  0
TEXT
  8
1
 10
41.636
 20
26.315
 40
2.500
 41
0.889
  1
起動２
  7
KANJI
 50
0.000
 51
0.000
  0
TEXT
  8
1
 10
53.636
 20
26.315
 40
2.500
 41
0.889
  1
起動３
  7
KANJI
 50
0.000
 51
0.000
  0
TEXT
  8
1
 10
65.636
 20
26.315
 40
2.500
 41
0.889
  1
起動４
  7
KANJI
 50
0.000
 51
0.000
  0
TEXT
  8
1
 10
67.035
 20
14.385
 40
2.500
 41
0.917
  1
停止
  7
KANJI
 50
0.000
 51
0.000
  0
TEXT
  8
1
 10
31.035
 20
-9.628
 40
2.500
 41
0.917
  1
自動
  7
KANJI
 50
0.000
 51
0.000
  0
TEXT
  8
1
 10
30.596
 20
1.828
 40
2.500
 41
0.583
  1
１～４
  7
KANJI
 50
0.000
 51
0.000
  0
TEXT
  8
1
 10
42.596
 20
1.828
 40
2.500
 41
0.583
  1
５～８
  7
KANJI
 50
0.000
 51
0.000
  0
TEXT
  8
1
 10
54.157
 20
1.952
 40
2.500
 41
0.583
  1
９～１２
  7
KANJI
 50
0.000
 51
0.000
  0
TEXT
  8
1
 10
65.213
 20
1.943
 40
2.500
 41
0.583
  1
１３～１６
  7
KANJI
 50
0.000
 51
0.000
  0
TEXT
  8
1
 10
27.962
 20
54.083
 40
2.700
 41
1.154
  1
１
  7
KANJI
 50
0.000
 51
0.000
  0
TEXT
  8
1
 10
35.582
 20
54.083
 40
2.700
 41
1.154
  1
３
  7
KANJI
 50
0.000
 51
0.000
  0
TEXT
  8
1
 10
31.772
 20
54.083
 40
2.700
 41
1.154
  1
２
  7
KANJI
 50
0.000
 51
0.000
  0
TEXT
  8
1
 10
44.152
 20
54.083
 40
2.700
 41
1.077
  1
呼出
  7
KANJI
 50
0.000
 51
0.000
  0
TEXT
  8
1
 10
52.152
 20
54.083
 40
2.700
 41
0.862
  1
登録 
  7
KANJI
 50
0.000
 51
0.000
  0
TEXT
  8
1
 10
65.792
 20
42.364
 40
2.000
 41
1.070
  1
Ａｌｔ
  7
KANJI
 50
0.000
 51
0.000
  0
TEXT
  8
1
 10
29.681
 20
42.364
 40
2.000
 41
0.886
  1
ＯＰＴ．
  7
KANJI
 50
0.000
 51
0.000
  0
TEXT
  8
1
 10
47.792
 20
42.364
 40
2.000
 41
1.070
  1
ﾌﾟﾘｾｯﾄ
  7
KANJI
 50
0.000
 51
0.000
  0
TEXT
  8
1
 10
-31.557
 20
16.650
 40
3.200
 41
0.898
  1
広角
  7
KANJI
 50
0.000
 51
0.000
  0
TEXT
  8
1
 10
-9.557
 20
16.356
 40
3.200
 41
0.898
  1
望遠
  7
KANJI
 50
0.000
 51
0.000
  0
TEXT
  8
1
 10
-31.557
 20
-2.252
 40
3.200
 41
0.898
  1
近方
  7
KANJI
 50
0.000
 51
0.000
  0
TEXT
  8
1
 10
-9.557
 20
-2.595
 40
3.200
 41
0.898
  1
遠方
  7
KANJI
 50
0.000
 51
0.000
  0
TEXT
  8
1
 10
51.506
 20
57.767
 40
2.500
 41
0.607
  1
(長押し)
  7
KANJI
 50
0.000
 51
0.000
  0
TEXT
  8
1
 10
-23.358
 20
74.614
 40
2.500
 41
0.867
  1
操作ロック
  7
KANJI
 50
0.000
 51
0.000
  0
TEXT
  8
1
 10
16.943
 20
-7.634
 40
3.000
 41
0.903
  1
自動
  7
KANJI
 50
0.000
 51
0.000
  0
TEXT
  8
1
 10
15.443
 20
4.373
 40
3.000
 41
0.880
  1
４分割
  7
KANJI
 50
0.000
 51
0.000
  0
TEXT
  8
1
 10
12.443
 20
23.863
 40
3.000
 41
0.861
  1
プリセット
  7
KANJI
 50
0.000
 51
0.000
  0
TEXT
  8
1
 10
15.443
 20
20.863
 40
3.000
 41
0.880
  1
ＳＥＱ
  7
KANJI
 50
0.000
 51
0.000
  0
TEXT
  8
1
 10
103.912
 20
-9.734
 40
3.000
 41
0.684
  1
ＡＦ（ＰＵＳＨ）
  7
KANJI
 50
0.000
 51
0.000
  0
CIRCLE
  6
CONTINUOUS
  8
1
 10
104.392
 20
8.364
 40
9.000
  0
CIRCLE
  6
CONTINUOUS
  8
1
 10
90.392
 20
22.364
 40
1.500
  0
CIRCLE
  6
CONTINUOUS
  8
1
 10
47.582
 20
51.364
 40
1.200
  0
CIRCLE
  6
CONTINUOUS
  8
1
 10
55.202
 20
51.364
 40
1.200
  0
CIRCLE
  6
CONTINUOUS
  8
1
 10
37.202
 20
51.364
 40
1.200
  0
CIRCLE
  6
CONTINUOUS
  8
1
 10
33.392
 20
51.364
 40
1.200
  0
CIRCLE
  6
CONTINUOUS
  8
1
 10
29.582
 20
51.364
 40
1.200
  0
CIRCLE
  6
CONTINUOUS
  8
1
 10
-32.167
 20
49.364
 40
1.200
  0
CIRCLE
  6
CONTINUOUS
  8
1
 10
-28.363
 20
49.364
 40
1.200
  0
CIRCLE
  6
CONTINUOUS
  8
1
 10
-24.547
 20
49.364
 40
1.200
  0
CIRCLE
  6
CONTINUOUS
  8
1
 10
69.392
 20
51.364
 40
1.200
  0
LINE
  6
CONTINUOUS
  8
1
 10
10.995
 20
10.169
 11
10.995
 21
1.769
  0
LINE
  6
CONTINUOUS
  8
1
 10
10.995
 20
-1.831
 11
10.995
 21
-10.231
  0
ARC
  6
CONTINUOUS
  8
1
 10
12.795
 20
10.169
 40
1.800
 50
90.000
 51
180.000
  0
ARC
  6
CONTINUOUS
  8
1
 10
12.795
 20
1.769
 40
1.800
 50
180.000
 51
270.000
  0
ARC
  6
CONTINUOUS
  8
1
 10
12.795
 20
-1.831
 40
1.800
 50
90.000
 51
180.000
  0
ARC
  6
CONTINUOUS
  8
1
 10
12.795
 20
-10.231
 40
1.800
 50
180.000
 51
270.000
  0
LINE
  6
CONTINUOUS
  8
1
 10
208.430
 20
12.453
 11
208.430
 21
4.420
  0
CIRCLE
  6
CONTINUOUS
  8
1
 10
104.392
 20
8.364
 40
3.750
  0
CIRCLE
  6
CONTINUOUS
  8
1
 10
104.392
 20
8.364
 40
3.250
  0
ENDSEC
  0
EOF
